ISO-10303-21;
HEADER;
FILE_DESCRIPTION (( 'STEP AP203' ),
    '1' );
FILE_NAME ('Web Model 64402MX_64402.step',
    '2017-10-30T13:11:30',
    ( '' ),
    ( '' ),
    'SwSTEP 2.0',
    'SolidWorks 2016',
    '' );
FILE_SCHEMA (( 'CONFIG_CONTROL_DESIGN' ));
ENDSEC;

DATA;
#1 = ORIENTED_EDGE ( 'NONE', *, *, #43, .F. ) ;
#2 = APPROVAL ( #154, 'UNSPECIFIED' ) ;
#3 = APPROVAL ( #59, 'UNSPECIFIED' ) ;
#4 = COORDINATED_UNIVERSAL_TIME_OFFSET ( 5, 0, .BEHIND. ) ;
#5 = DIRECTION ( 'NONE',  ( 1.000000000000000000, 0.0000000000000000000, 0.0000000000000000000 ) ) ;
#6 = LINE ( 'NONE', #157, #223 ) ;
#7 = DIRECTION ( 'NONE',  ( -0.0000000000000000000, -0.0000000000000000000, -1.000000000000000000 ) ) ;
#8 = CARTESIAN_POINT ( 'NONE',  ( 12.49999999999999800, 12.50000000000000400, 4.750000000000000000 ) ) ;
#9 = APPROVAL_PERSON_ORGANIZATION ( #158, #2, #36 ) ;
#10 = ORIENTED_EDGE ( 'NONE', *, *, #18, .F. ) ;
#11 = EDGE_LOOP ( 'NONE', ( #233, #111, #10, #163 ) ) ;
#12 = LOCAL_TIME ( 9, 11, 30.00000000000000000, #129 ) ;
#13 = VECTOR ( 'NONE', #51, 1000.000000000000000 ) ;
#14 = COORDINATED_UNIVERSAL_TIME_OFFSET ( 5, 0, .BEHIND. ) ;
#15 = VERTEX_POINT ( 'NONE', #40 ) ;
#16 = ORIENTED_EDGE ( 'NONE', *, *, #18, .T. ) ;
#17 = CARTESIAN_POINT ( 'NONE',  ( 0.0000000000000000000, 0.0000000000000000000, -4.750000000000000000 ) ) ;
#18 = EDGE_CURVE ( 'NONE', #91, #151, #76, .T. ) ;
#19 = DIRECTION ( 'NONE',  ( -1.000000000000000000, -1.387778780781445700E-016, 0.0000000000000000000 ) ) ;
#20 = ORIENTED_EDGE ( 'NONE', *, *, #30, .F. ) ;
#21 = ORIENTED_EDGE ( 'NONE', *, *, #43, .T. ) ;
#22 = DIRECTION ( 'NONE',  ( 1.000000000000000000, 1.387778780781445700E-016, -0.0000000000000000000 ) ) ;
#23 = COORDINATED_UNIVERSAL_TIME_OFFSET ( 5, 0, .BEHIND. ) ;
#24 = PERSON_AND_ORGANIZATION ( #202, #128 ) ;
#25 = CC_DESIGN_PERSON_AND_ORGANIZATION_ASSIGNMENT ( #24, #135, ( #108 ) ) ;
#26 = APPLICATION_CONTEXT ( 'configuration controlled 3d designs of mechanical parts and assemblies' ) ;
#27 = PLANE ( 'NONE',  #103 ) ;
#28 = FACE_OUTER_BOUND ( 'NONE', #55, .T. ) ;
#29 = EDGE_CURVE ( 'NONE', #179, #91, #93, .T. ) ;
#30 = EDGE_CURVE ( 'NONE', #151, #15, #188, .T. ) ;
#31 = ORIENTED_EDGE ( 'NONE', *, *, #178, .T. ) ;
#32 = PLANE ( 'NONE',  #84 ) ;
#33 = CARTESIAN_POINT ( 'NONE',  ( -12.50000000000000200, -12.50000000000000000, 4.750000000000000000 ) ) ;
#34 = EDGE_CURVE ( 'NONE', #232, #200, #170, .T. ) ;
#35 = PERSON_AND_ORGANIZATION ( #202, #128 ) ;
#36 = APPROVAL_ROLE ( '' ) ;
#37 = DIRECTION ( 'NONE',  ( 0.0000000000000000000, -0.0000000000000000000, 1.000000000000000000 ) ) ;
#38 = FACE_OUTER_BOUND ( 'NONE', #105, .T. ) ;
#39 = DIRECTION ( 'NONE',  ( 1.000000000000000000, 1.387778780781445700E-016, -0.0000000000000000000 ) ) ;
#40 = CARTESIAN_POINT ( 'NONE',  ( 12.49999999999999800, -12.49999999999999600, 4.750000000000000000 ) ) ;
#41 = APPROVAL_ROLE ( '' ) ;
#42 = CARTESIAN_POINT ( 'NONE',  ( 12.49999999999999800, 12.50000000000000400, -4.750000000000000000 ) ) ;
#43 = EDGE_CURVE ( 'NONE', #222, #232, #6, .T. ) ;
#44 = ORIENTED_EDGE ( 'NONE', *, *, #87, .T. ) ;
#45 = VECTOR ( 'NONE', #82, 1000.000000000000000 ) ;
#46 = CALENDAR_DATE ( 2017, 30, 10 ) ;
#47 = FACE_OUTER_BOUND ( 'NONE', #138, .T. ) ;
#48 = CARTESIAN_POINT ( 'NONE',  ( 12.49999999999999800, 12.50000000000000400, 4.750000000000000000 ) ) ;
#49 = DIRECTION ( 'NONE',  ( 1.000000000000000000, 1.387778780781445700E-016, 0.0000000000000000000 ) ) ;
#50 = CARTESIAN_POINT ( 'NONE',  ( 12.49999999999999800, 12.50000000000000400, -4.750000000000000000 ) ) ;
#51 = DIRECTION ( 'NONE',  ( -0.0000000000000000000, -1.000000000000000000, -0.0000000000000000000 ) ) ;
#52 = CARTESIAN_POINT ( 'NONE',  ( 12.49999999999999800, -12.49999999999999600, 4.750000000000000000 ) ) ;
#53 = ORIENTED_EDGE ( 'NONE', *, *, #99, .F. ) ;
#54 = DATE_AND_TIME ( #46, #75 ) ;
#55 = EDGE_LOOP ( 'NONE', ( #153, #237, #20, #85 ) ) ;
#56 = AXIS2_PLACEMENT_3D ( 'NONE', #132, #94, #74 ) ;
#57 = DIRECTION ( 'NONE',  ( -0.0000000000000000000, -0.0000000000000000000, -1.000000000000000000 ) ) ;
#58 = PERSON_AND_ORGANIZATION_ROLE ( 'creator' ) ;
#59 = APPROVAL_STATUS ( 'not_yet_approved' ) ;
#60 = DIRECTION ( 'NONE',  ( -1.000000000000000000, -1.387778780781445700E-016, 0.0000000000000000000 ) ) ;
#61 = LINE ( 'NONE', #136, #114 ) ;
#62 = CARTESIAN_POINT ( 'NONE',  ( -12.50000000000000200, 12.50000000000000000, -4.750000000000000000 ) ) ;
#63 = CARTESIAN_POINT ( 'NONE',  ( -12.50000000000000200, -12.50000000000000000, 4.750000000000000000 ) ) ;
#64 = AXIS2_PLACEMENT_3D ( 'NONE', #187, #182, #60 ) ;
#65 = DATE_TIME_ROLE ( 'classification_date' ) ;
#66 = DATE_AND_TIME ( #213, #92 ) ;
#67 = CARTESIAN_POINT ( 'NONE',  ( 12.49999999999999800, -12.49999999999999600, 4.750000000000000000 ) ) ;
#68 = DATE_AND_TIME ( #81, #12 ) ;
#69 = DIRECTION ( 'NONE',  ( 0.0000000000000000000, 0.0000000000000000000, 1.000000000000000000 ) ) ;
#70 = ORIENTED_EDGE ( 'NONE', *, *, #30, .T. ) ;
#71 = AXIS2_PLACEMENT_3D ( 'NONE', #119, #5, #173 ) ;
#72 = DIRECTION ( 'NONE',  ( 0.0000000000000000000, 1.000000000000000000, 0.0000000000000000000 ) ) ;
#73 =( GEOMETRIC_REPRESENTATION_CONTEXT ( 3 ) GLOBAL_UNCERTAINTY_ASSIGNED_CONTEXT ( ( #148 ) ) GLOBAL_UNIT_ASSIGNED_CONTEXT ( ( #205, #127, #145 ) ) REPRESENTATION_CONTEXT ( 'NONE', 'WORKASPACE' ) );
#74 = DIRECTION ( 'NONE',  ( 1.000000000000000000, 0.0000000000000000000, -0.0000000000000000000 ) ) ;
#75 = LOCAL_TIME ( 9, 11, 30.00000000000000000, #14 ) ;
#76 = LINE ( 'NONE', #176, #106 ) ;
#77 = DIRECTION ( 'NONE',  ( 0.0000000000000000000, 0.0000000000000000000, 1.000000000000000000 ) ) ;
#78 = CC_DESIGN_DATE_AND_TIME_ASSIGNMENT ( #208, #65, ( #110 ) ) ;
#79 = CARTESIAN_POINT ( 'NONE',  ( -12.50000000000000200, -12.50000000000000000, -4.750000000000000000 ) ) ;
#80 = APPROVAL_PERSON_ORGANIZATION ( #160, #3, #137 ) ;
#81 = CALENDAR_DATE ( 2017, 30, 10 ) ;
#82 = DIRECTION ( 'NONE',  ( -0.0000000000000000000, -0.0000000000000000000, -1.000000000000000000 ) ) ;
#83 = VECTOR ( 'NONE', #39, 1000.000000000000000 ) ;
#84 = AXIS2_PLACEMENT_3D ( 'NONE', #52, #133, #77 ) ;
#85 = ORIENTED_EDGE ( 'NONE', *, *, #190, .T. ) ;
#86 = LINE ( 'NONE', #181, #218 ) ;
#87 = EDGE_CURVE ( 'NONE', #15, #222, #149, .T. ) ;
#88 = APPLICATION_PROTOCOL_DEFINITION ( 'international standard', 'config_control_design', 1994, #26 ) ;
#89 = AXIS2_PLACEMENT_3D ( 'NONE', #17, #37, #194 ) ;
#90 = CARTESIAN_POINT ( 'NONE',  ( 0.0000000000000000000, 0.0000000000000000000, 0.0000000000000000000 ) ) ;
#91 = VERTEX_POINT ( 'NONE', #216 ) ;
#92 = LOCAL_TIME ( 9, 11, 30.00000000000000000, #4 ) ;
#93 = LINE ( 'NONE', #196, #126 ) ;
#94 = DIRECTION ( 'NONE',  ( 0.0000000000000000000, -0.0000000000000000000, 1.000000000000000000 ) ) ;
#95 = VECTOR ( 'NONE', #199, 1000.000000000000000 ) ;
#96 = VERTEX_POINT ( 'NONE', #184 ) ;
#97 = CALENDAR_DATE ( 2017, 30, 10 ) ;
#98 = EDGE_LOOP ( 'NONE', ( #21, #115, #191, #44 ) ) ;
#99 = EDGE_CURVE ( 'NONE', #200, #96, #167, .T. ) ;
#100 = FACE_OUTER_BOUND ( 'NONE', #207, .T. ) ;
#101 = PERSON_AND_ORGANIZATION_ROLE ( 'design_supplier' ) ;
#102 = ADVANCED_FACE ( 'NONE', ( #100 ), #185, .T. ) ;
#103 = AXIS2_PLACEMENT_3D ( 'NONE', #48, #162, #49 ) ;
#104 = ORIENTED_EDGE ( 'NONE', *, *, #186, .F. ) ;
#105 = EDGE_LOOP ( 'NONE', ( #209, #203, #164, #31 ) ) ;
#106 = VECTOR ( 'NONE', #124, 1000.000000000000000 ) ;
#107 = DIRECTION ( 'NONE',  ( 0.0000000000000000000, 1.000000000000000000, 0.0000000000000000000 ) ) ;
#108 = PRODUCT_DEFINITION ( 'UNKNOWN', '', #142, #231 ) ;
#109 = ADVANCED_BREP_SHAPE_REPRESENTATION ( 'Web Model 64402MX_64402', ( #230, #125 ), #73 ) ;
#110 = SECURITY_CLASSIFICATION ( '', '', #177 ) ;
#111 = ORIENTED_EDGE ( 'NONE', *, *, #190, .F. ) ;
#112 = CARTESIAN_POINT ( 'NONE',  ( 12.49999999999999800, -12.49999999999999600, 4.750000000000000000 ) ) ;
#113 = PRODUCT_RELATED_PRODUCT_CATEGORY ( 'detail', '', ( #198 ) ) ;
#114 = VECTOR ( 'NONE', #7, 1000.000000000000000 ) ;
#115 = ORIENTED_EDGE ( 'NONE', *, *, #178, .F. ) ;
#116 = PERSON_AND_ORGANIZATION ( #202, #128 ) ;
#117 = CLOSED_SHELL ( 'NONE', ( #174, #152, #120, #197, #102, #159 ) ) ;
#118 = PERSON_AND_ORGANIZATION ( #202, #128 ) ;
#119 = CARTESIAN_POINT ( 'NONE',  ( -12.50000000000000200, -12.50000000000000000, 4.750000000000000000 ) ) ;
#120 = ADVANCED_FACE ( 'NONE', ( #225 ), #32, .F. ) ;
#121 = APPROVAL_STATUS ( 'not_yet_approved' ) ;
#122 = DATE_AND_TIME ( #141, #215 ) ;
#123 = PLANE ( 'NONE',  #89 ) ;
#124 = DIRECTION ( 'NONE',  ( -0.0000000000000000000, -1.000000000000000000, -0.0000000000000000000 ) ) ;
#125 = AXIS2_PLACEMENT_3D ( 'NONE', #90, #69, #201 ) ;
#126 = VECTOR ( 'NONE', #19, 1000.000000000000000 ) ;
#127 =( NAMED_UNIT ( * ) PLANE_ANGLE_UNIT ( ) SI_UNIT ( $, .RADIAN. ) );
#128 = ORGANIZATION ( 'UNSPECIFIED', 'UNSPECIFIED', '' ) ;
#129 = COORDINATED_UNIVERSAL_TIME_OFFSET ( 5, 0, .BEHIND. ) ;
#130 = APPROVAL_DATE_TIME ( #122, #3 ) ;
#131 = CC_DESIGN_APPROVAL ( #219, ( #110 ) ) ;
#132 = CARTESIAN_POINT ( 'NONE',  ( 0.0000000000000000000, 0.0000000000000000000, 4.750000000000000000 ) ) ;
#133 = DIRECTION ( 'NONE',  ( -1.000000000000000000, 0.0000000000000000000, 0.0000000000000000000 ) ) ;
#134 = CC_DESIGN_PERSON_AND_ORGANIZATION_ASSIGNMENT ( #116, #226, ( #110 ) ) ;
#135 = PERSON_AND_ORGANIZATION_ROLE ( 'creator' ) ;
#136 = CARTESIAN_POINT ( 'NONE',  ( 12.49999999999999800, 12.50000000000000400, 4.750000000000000000 ) ) ;
#137 = APPROVAL_ROLE ( '' ) ;
#138 = EDGE_LOOP ( 'NONE', ( #53, #146, #1, #104 ) ) ;
#139 = DIRECTION ( 'NONE',  ( -0.0000000000000000000, -0.0000000000000000000, -1.000000000000000000 ) ) ;
#140 = LOCAL_TIME ( 9, 11, 30.00000000000000000, #23 ) ;
#141 = CALENDAR_DATE ( 2017, 30, 10 ) ;
#142 = PRODUCT_DEFINITION_FORMATION_WITH_SPECIFIED_SOURCE ( 'ANY', '', #198, .NOT_KNOWN. ) ;
#143 = PERSON_AND_ORGANIZATION ( #202, #128 ) ;
#144 = FACE_OUTER_BOUND ( 'NONE', #11, .T. ) ;
#145 =( NAMED_UNIT ( * ) SI_UNIT ( $, .STERADIAN. ) SOLID_ANGLE_UNIT ( ) );
#146 = ORIENTED_EDGE ( 'NONE', *, *, #34, .F. ) ;
#147 = APPLICATION_CONTEXT ( 'configuration controlled 3d designs of mechanical parts and assemblies' ) ;
#148 = UNCERTAINTY_MEASURE_WITH_UNIT (LENGTH_MEASURE( 1.000000000000000100E-005 ), #205, 'distance_accuracy_value', 'NONE');
#149 = LINE ( 'NONE', #112, #228 ) ;
#150 = CC_DESIGN_PERSON_AND_ORGANIZATION_ASSIGNMENT ( #143, #58, ( #142 ) ) ;
#151 = VERTEX_POINT ( 'NONE', #33 ) ;
#152 = ADVANCED_FACE ( 'NONE', ( #28 ), #168, .F. ) ;
#153 = ORIENTED_EDGE ( 'NONE', *, *, #186, .T. ) ;
#154 = APPROVAL_STATUS ( 'not_yet_approved' ) ;
#155 = CC_DESIGN_APPROVAL ( #3, ( #108 ) ) ;
#156 = CARTESIAN_POINT ( 'NONE',  ( -12.50000000000000200, 12.50000000000000000, 4.750000000000000000 ) ) ;
#157 = CARTESIAN_POINT ( 'NONE',  ( 12.49999999999999800, -12.49999999999999600, -4.750000000000000000 ) ) ;
#158 = PERSON_AND_ORGANIZATION ( #202, #128 ) ;
#159 = ADVANCED_FACE ( 'NONE', ( #47 ), #123, .F. ) ;
#160 = PERSON_AND_ORGANIZATION ( #202, #128 ) ;
#161 = MECHANICAL_CONTEXT ( 'NONE', #26, 'mechanical' ) ;
#162 = DIRECTION ( 'NONE',  ( 1.387778780781445700E-016, -1.000000000000000000, 0.0000000000000000000 ) ) ;
#163 = ORIENTED_EDGE ( 'NONE', *, *, #172, .T. ) ;
#164 = ORIENTED_EDGE ( 'NONE', *, *, #29, .F. ) ;
#165 = CARTESIAN_POINT ( 'NONE',  ( 12.49999999999999800, -12.49999999999999600, -4.750000000000000000 ) ) ;
#166 = APPROVAL_DATE_TIME ( #54, #219 ) ;
#167 = LINE ( 'NONE', #79, #13 ) ;
#168 = PLANE ( 'NONE',  #64 ) ;
#169 = CC_DESIGN_DATE_AND_TIME_ASSIGNMENT ( #68, #192, ( #108 ) ) ;
#170 = LINE ( 'NONE', #42, #95 ) ;
#171 = LINE ( 'NONE', #63, #195 ) ;
#172 = EDGE_CURVE ( 'NONE', #91, #200, #183, .T. ) ;
#173 = DIRECTION ( 'NONE',  ( 0.0000000000000000000, 0.0000000000000000000, -1.000000000000000000 ) ) ;
#174 = ADVANCED_FACE ( 'NONE', ( #144 ), #193, .F. ) ;
#175 = COORDINATED_UNIVERSAL_TIME_OFFSET ( 5, 0, .BEHIND. ) ;
#176 = CARTESIAN_POINT ( 'NONE',  ( -12.50000000000000200, -12.50000000000000000, 4.750000000000000000 ) ) ;
#177 = SECURITY_CLASSIFICATION_LEVEL ( 'unclassified' ) ;
#178 = EDGE_CURVE ( 'NONE', #179, #232, #61, .T. ) ;
#179 = VERTEX_POINT ( 'NONE', #8 ) ;
#180 = PRODUCT_DEFINITION_SHAPE ( 'NONE', 'NONE',  #108 ) ;
#181 = CARTESIAN_POINT ( 'NONE',  ( 12.49999999999999800, -12.49999999999999600, 4.750000000000000000 ) ) ;
#182 = DIRECTION ( 'NONE',  ( -1.387778780781445700E-016, 1.000000000000000000, 0.0000000000000000000 ) ) ;
#183 = LINE ( 'NONE', #156, #45 ) ;
#184 = CARTESIAN_POINT ( 'NONE',  ( -12.50000000000000200, -12.50000000000000000, -4.750000000000000000 ) ) ;
#185 = PLANE ( 'NONE',  #56 ) ;
#186 = EDGE_CURVE ( 'NONE', #96, #222, #236, .T. ) ;
#187 = CARTESIAN_POINT ( 'NONE',  ( 12.49999999999999800, -12.49999999999999600, 4.750000000000000000 ) ) ;
#188 = LINE ( 'NONE', #67, #214 ) ;
#189 = CC_DESIGN_PERSON_AND_ORGANIZATION_ASSIGNMENT ( #35, #101, ( #142 ) ) ;
#190 = EDGE_CURVE ( 'NONE', #151, #96, #171, .T. ) ;
#191 = ORIENTED_EDGE ( 'NONE', *, *, #221, .F. ) ;
#192 = DATE_TIME_ROLE ( 'creation_date' ) ;
#193 = PLANE ( 'NONE',  #71 ) ;
#194 = DIRECTION ( 'NONE',  ( 1.000000000000000000, 0.0000000000000000000, -0.0000000000000000000 ) ) ;
#195 = VECTOR ( 'NONE', #139, 1000.000000000000000 ) ;
#196 = CARTESIAN_POINT ( 'NONE',  ( 12.49999999999999800, 12.50000000000000400, 4.750000000000000000 ) ) ;
#197 = ADVANCED_FACE ( 'NONE', ( #38 ), #27, .F. ) ;
#198 = PRODUCT ( 'Web Model 64402MX_64402', 'Web Model 64402MX_64402', '', ( #161 ) ) ;
#199 = DIRECTION ( 'NONE',  ( -1.000000000000000000, -1.387778780781445700E-016, 0.0000000000000000000 ) ) ;
#200 = VERTEX_POINT ( 'NONE', #62 ) ;
#201 = DIRECTION ( 'NONE',  ( 1.000000000000000000, 0.0000000000000000000, 0.0000000000000000000 ) ) ;
#202 = PERSON ( 'UNSPECIFIED', 'UNSPECIFIED', 'UNSPECIFIED', ('UNSPECIFIED'), ('UNSPECIFIED'), ('UNSPECIFIED') ) ;
#203 = ORIENTED_EDGE ( 'NONE', *, *, #172, .F. ) ;
#204 = APPROVAL_DATE_TIME ( #66, #2 ) ;
#205 =( LENGTH_UNIT ( ) NAMED_UNIT ( * ) SI_UNIT ( .MILLI., .METRE. ) );
#206 = ORIENTED_EDGE ( 'NONE', *, *, #221, .T. ) ;
#207 = EDGE_LOOP ( 'NONE', ( #16, #70, #206, #212 ) ) ;
#208 = DATE_AND_TIME ( #97, #140 ) ;
#209 = ORIENTED_EDGE ( 'NONE', *, *, #34, .T. ) ;
#210 = CC_DESIGN_APPROVAL ( #2, ( #142 ) ) ;
#211 = CARTESIAN_POINT ( 'NONE',  ( 12.49999999999999800, -12.49999999999999600, -4.750000000000000000 ) ) ;
#212 = ORIENTED_EDGE ( 'NONE', *, *, #29, .T. ) ;
#213 = CALENDAR_DATE ( 2017, 30, 10 ) ;
#214 = VECTOR ( 'NONE', #22, 1000.000000000000000 ) ;
#215 = LOCAL_TIME ( 9, 11, 30.00000000000000000, #175 ) ;
#216 = CARTESIAN_POINT ( 'NONE',  ( -12.50000000000000200, 12.50000000000000000, 4.750000000000000000 ) ) ;
#217 = APPROVAL_PERSON_ORGANIZATION ( #227, #219, #41 ) ;
#218 = VECTOR ( 'NONE', #72, 1000.000000000000000 ) ;
#219 = APPROVAL ( #121, 'UNSPECIFIED' ) ;
#220 = SHAPE_DEFINITION_REPRESENTATION ( #180, #109 ) ;
#221 = EDGE_CURVE ( 'NONE', #15, #179, #86, .T. ) ;
#222 = VERTEX_POINT ( 'NONE', #165 ) ;
#223 = VECTOR ( 'NONE', #107, 1000.000000000000000 ) ;
#224 = APPLICATION_PROTOCOL_DEFINITION ( 'international standard', 'config_control_design', 1994, #147 ) ;
#225 = FACE_OUTER_BOUND ( 'NONE', #98, .T. ) ;
#226 = PERSON_AND_ORGANIZATION_ROLE ( 'classification_officer' ) ;
#227 = PERSON_AND_ORGANIZATION ( #202, #128 ) ;
#228 = VECTOR ( 'NONE', #57, 1000.000000000000000 ) ;
#229 = CC_DESIGN_PERSON_AND_ORGANIZATION_ASSIGNMENT ( #118, #235, ( #198 ) ) ;
#230 = MANIFOLD_SOLID_BREP ( 'Boss-Extrude1', #117 ) ;
#231 = DESIGN_CONTEXT ( 'detailed design', #147, 'design' ) ;
#232 = VERTEX_POINT ( 'NONE', #50 ) ;
#233 = ORIENTED_EDGE ( 'NONE', *, *, #99, .T. ) ;
#234 = CC_DESIGN_SECURITY_CLASSIFICATION ( #110, ( #142 ) ) ;
#235 = PERSON_AND_ORGANIZATION_ROLE ( 'design_owner' ) ;
#236 = LINE ( 'NONE', #211, #83 ) ;
#237 = ORIENTED_EDGE ( 'NONE', *, *, #87, .F. ) ;
ENDSEC;
END-ISO-10303-21;
