ISO-10303-21;
HEADER;
FILE_DESCRIPTION (( 'STEP AP203' ),
    '1' );
FILE_NAME ('Web Model 17561_17561.step',
    '2021-06-03T18:29:21',
    ( '' ),
    ( '' ),
    'SwSTEP 2.0',
    'SolidWorks 2018',
    '' );
FILE_SCHEMA (( 'CONFIG_CONTROL_DESIGN' ));
ENDSEC;

DATA;
#1 = CALENDAR_DATE ( 2021, 3, 6 ) ;
#2 = DIRECTION ( 'NONE',  ( 0.000000000000000000, 0.000000000000000000, 1.000000000000000000 ) ) ;
#3 = DIRECTION ( 'NONE',  ( 1.000000000000000000, 0.000000000000000000, -0.000000000000000000 ) ) ;
#4 = LENGTH_MEASURE_WITH_UNIT ( LENGTH_MEASURE( 0.02539999999999999897 ), #142 );
#5 = EDGE_CURVE ( 'NONE', #48, #112, #40, .T. ) ;
#6 = APPLICATION_CONTEXT ( 'configuration controlled 3d designs of mechanical parts and assemblies' ) ;
#7 = APPROVAL_ROLE ( '' ) ;
#8 = PERSON_AND_ORGANIZATION_ROLE ( 'classification_officer' ) ;
#9 = FACE_OUTER_BOUND ( 'NONE', #149, .T. ) ;
#10 = ADVANCED_BREP_SHAPE_REPRESENTATION ( 'Web Model 17561_17561', ( #80, #18 ), #25 ) ;
#11 = CC_DESIGN_DATE_AND_TIME_ASSIGNMENT ( #53, #89, ( #77 ) ) ;
#12 = PERSON_AND_ORGANIZATION ( #163, #45 ) ;
#13 = VERTEX_POINT ( 'NONE', #84 ) ;
#14 = CARTESIAN_POINT ( 'NONE',  ( 1.968503937007874072, 2.410722045565655947E-16, 0.1968503937007874127 ) ) ;
#15 = PERSON_AND_ORGANIZATION_ROLE ( 'creator' ) ;
#16 = AXIS2_PLACEMENT_3D ( 'NONE', #116, #35, #104 ) ;
#17 = APPLICATION_PROTOCOL_DEFINITION ( 'international standard', 'config_control_design', 1994, #6 ) ;
#18 = AXIS2_PLACEMENT_3D ( 'NONE', #157, #169, #87 ) ;
#19 = PERSON_AND_ORGANIZATION ( #163, #45 ) ;
#20 = CC_DESIGN_PERSON_AND_ORGANIZATION_ASSIGNMENT ( #106, #34, ( #74 ) ) ;
#21 = APPROVAL_DATE_TIME ( #120, #152 ) ;
#22 = COORDINATED_UNIVERSAL_TIME_OFFSET ( 5, 0, .BEHIND. ) ;
#23 = ORIENTED_EDGE ( 'NONE', *, *, #122, .T. ) ;
#24 = ORIENTED_EDGE ( 'NONE', *, *, #5, .F. ) ;
#25 =( GEOMETRIC_REPRESENTATION_CONTEXT ( 3 ) GLOBAL_UNCERTAINTY_ASSIGNED_CONTEXT ( ( #38 ) ) GLOBAL_UNIT_ASSIGNED_CONTEXT ( ( #129, #143, #44 ) ) REPRESENTATION_CONTEXT ( 'NONE', 'WORKASPACE' ) );
#26 = PRODUCT_DEFINITION_SHAPE ( 'NONE', 'NONE',  #77 ) ;
#27 = DIRECTION ( 'NONE',  ( -0.000000000000000000, -0.000000000000000000, -1.000000000000000000 ) ) ;
#28 = COORDINATED_UNIVERSAL_TIME_OFFSET ( 5, 0, .BEHIND. ) ;
#29 = CC_DESIGN_PERSON_AND_ORGANIZATION_ASSIGNMENT ( #136, #58, ( #96 ) ) ;
#30 = DIRECTION ( 'NONE',  ( 0.000000000000000000, 0.000000000000000000, 1.000000000000000000 ) ) ;
#31 = COORDINATED_UNIVERSAL_TIME_OFFSET ( 5, 0, .BEHIND. ) ;
#32 = AXIS2_PLACEMENT_3D ( 'NONE', #164, #137, #56 ) ;
#33 = ORIENTED_EDGE ( 'NONE', *, *, #175, .F. ) ;
#34 = PERSON_AND_ORGANIZATION_ROLE ( 'creator' ) ;
#35 = DIRECTION ( 'NONE',  ( 0.000000000000000000, 0.000000000000000000, 1.000000000000000000 ) ) ;
#36 = APPROVAL_ROLE ( '' ) ;
#37 = COORDINATED_UNIVERSAL_TIME_OFFSET ( 5, 0, .BEHIND. ) ;
#38 = UNCERTAINTY_MEASURE_WITH_UNIT (LENGTH_MEASURE( 1.000000000000000082E-05 ), #129, 'distance_accuracy_value', 'NONE');
#39 = APPROVAL ( #115, 'UNSPECIFIED' ) ;
#40 = CIRCLE ( 'NONE', #32, 1.968503937007874072 ) ;
#41 = CARTESIAN_POINT ( 'NONE',  ( 1.968503937007874072, 2.410722045565655947E-16, 0.000000000000000000 ) ) ;
#42 = DIRECTION ( 'NONE',  ( 0.000000000000000000, 0.000000000000000000, 1.000000000000000000 ) ) ;
#43 = DIRECTION ( 'NONE',  ( 0.000000000000000000, 0.000000000000000000, 1.000000000000000000 ) ) ;
#44 =( NAMED_UNIT ( * ) SI_UNIT ( $, .STERADIAN. ) SOLID_ANGLE_UNIT ( ) );
#45 = ORGANIZATION ( 'UNSPECIFIED', 'UNSPECIFIED', '' ) ;
#46 = EDGE_LOOP ( 'NONE', ( #103, #68, #177, #76 ) ) ;
#47 = AXIS2_PLACEMENT_3D ( 'NONE', #118, #43, #62 ) ;
#48 = VERTEX_POINT ( 'NONE', #54 ) ;
#49 = VECTOR ( 'NONE', #154, 39.37007874015748143 ) ;
#50 = ORIENTED_EDGE ( 'NONE', *, *, #139, .T. ) ;
#51 = PLANE ( 'NONE',  #59 ) ;
#52 = ADVANCED_FACE ( 'NONE', ( #110 ), #51, .F. ) ;
#53 = DATE_AND_TIME ( #64, #135 ) ;
#54 = CARTESIAN_POINT ( 'NONE',  ( -1.968503937007874072, 0.000000000000000000, 0.000000000000000000 ) ) ;
#55 = ADVANCED_FACE ( 'NONE', ( #9 ), #151, .T. ) ;
#56 = DIRECTION ( 'NONE',  ( 1.000000000000000000, 0.000000000000000000, 0.000000000000000000 ) ) ;
#57 = DIRECTION ( 'NONE',  ( -0.000000000000000000, -0.000000000000000000, -1.000000000000000000 ) ) ;
#58 = PERSON_AND_ORGANIZATION_ROLE ( 'design_owner' ) ;
#59 = AXIS2_PLACEMENT_3D ( 'NONE', #162, #42, #3 ) ;
#60 = ORIENTED_EDGE ( 'NONE', *, *, #139, .F. ) ;
#61 = APPLICATION_PROTOCOL_DEFINITION ( 'international standard', 'config_control_design', 1994, #75 ) ;
#62 = DIRECTION ( 'NONE',  ( 1.000000000000000000, 0.000000000000000000, 0.000000000000000000 ) ) ;
#63 = SECURITY_CLASSIFICATION_LEVEL ( 'unclassified' ) ;
#64 = CALENDAR_DATE ( 2021, 3, 6 ) ;
#65 = CC_DESIGN_APPROVAL ( #85, ( #77 ) ) ;
#66 = DATE_AND_TIME ( #128, #102 ) ;
#67 = APPROVAL_DATE_TIME ( #125, #39 ) ;
#68 = ORIENTED_EDGE ( 'NONE', *, *, #70, .T. ) ;
#69 = CIRCLE ( 'NONE', #16, 1.968503937007874072 ) ;
#70 = EDGE_CURVE ( 'NONE', #146, #112, #117, .T. ) ;
#71 = PERSON_AND_ORGANIZATION ( #163, #45 ) ;
#72 = CARTESIAN_POINT ( 'NONE',  ( -1.968503937007874072, 0.000000000000000000, 0.1968503937007874127 ) ) ;
#73 = CARTESIAN_POINT ( 'NONE',  ( 0.000000000000000000, 0.000000000000000000, 0.1968503937007874127 ) ) ;
#74 = PRODUCT_DEFINITION_FORMATION_WITH_SPECIFIED_SOURCE ( 'ANY', '', #96, .NOT_KNOWN. ) ;
#75 = APPLICATION_CONTEXT ( 'configuration controlled 3d designs of mechanical parts and assemblies' ) ;
#76 = ORIENTED_EDGE ( 'NONE', *, *, #109, .F. ) ;
#77 = PRODUCT_DEFINITION ( 'UNKNOWN', '', #74, #156 ) ;
#78 = FACE_OUTER_BOUND ( 'NONE', #161, .T. ) ;
#79 = CLOSED_SHELL ( 'NONE', ( #83, #111, #55, #52 ) ) ;
#80 = MANIFOLD_SOLID_BREP ( 'Boss-Extrude1', #79 ) ;
#81 = CC_DESIGN_APPROVAL ( #152, ( #90 ) ) ;
#82 = CC_DESIGN_APPROVAL ( #39, ( #74 ) ) ;
#83 = ADVANCED_FACE ( 'NONE', ( #160 ), #133, .T. ) ;
#84 = CARTESIAN_POINT ( 'NONE',  ( -1.968503937007874072, 0.000000000000000000, 0.1968503937007874127 ) ) ;
#85 = APPROVAL ( #171, 'UNSPECIFIED' ) ;
#86 = CARTESIAN_POINT ( 'NONE',  ( 1.968503937007874072, 2.410722045565655947E-16, 0.1968503937007874127 ) ) ;
#87 = DIRECTION ( 'NONE',  ( 1.000000000000000000, 0.000000000000000000, 0.000000000000000000 ) ) ;
#88 = MECHANICAL_CONTEXT ( 'NONE', #75, 'mechanical' ) ;
#89 = DATE_TIME_ROLE ( 'creation_date' ) ;
#90 = SECURITY_CLASSIFICATION ( '', '', #63 ) ;
#91 = PERSON_AND_ORGANIZATION ( #163, #45 ) ;
#92 = APPROVAL_DATE_TIME ( #66, #85 ) ;
#93 = CALENDAR_DATE ( 2021, 3, 6 ) ;
#94 = LINE ( 'NONE', #72, #49 ) ;
#95 = ORIENTED_EDGE ( 'NONE', *, *, #109, .T. ) ;
#96 = PRODUCT ( 'Web Model 17561_17561', 'Web Model 17561_17561', '', ( #88 ) ) ;
#97 = CARTESIAN_POINT ( 'NONE',  ( 0.000000000000000000, 0.000000000000000000, 0.1968503937007874127 ) ) ;
#98 = PERSON_AND_ORGANIZATION ( #163, #45 ) ;
#99 = DIRECTION ( 'NONE',  ( 1.000000000000000000, 0.000000000000000000, -0.000000000000000000 ) ) ;
#100 = CARTESIAN_POINT ( 'NONE',  ( 0.000000000000000000, 0.000000000000000000, 0.1968503937007874127 ) ) ;
#101 = DATE_TIME_ROLE ( 'classification_date' ) ;
#102 = LOCAL_TIME ( 14, 29, 21.00000000000000000, #31 ) ;
#103 = ORIENTED_EDGE ( 'NONE', *, *, #122, .F. ) ;
#104 = DIRECTION ( 'NONE',  ( 1.000000000000000000, 0.000000000000000000, 0.000000000000000000 ) ) ;
#105 = CC_DESIGN_PERSON_AND_ORGANIZATION_ASSIGNMENT ( #91, #8, ( #90 ) ) ;
#106 = PERSON_AND_ORGANIZATION ( #163, #45 ) ;
#107 = ORIENTED_EDGE ( 'NONE', *, *, #70, .F. ) ;
#108 = ORIENTED_EDGE ( 'NONE', *, *, #5, .T. ) ;
#109 = EDGE_CURVE ( 'NONE', #13, #48, #94, .T. ) ;
#110 = FACE_OUTER_BOUND ( 'NONE', #166, .T. ) ;
#111 = ADVANCED_FACE ( 'NONE', ( #78 ), #176, .T. ) ;
#112 = VERTEX_POINT ( 'NONE', #41 ) ;
#113 = DIRECTION ( 'NONE',  ( -0.000000000000000000, -0.000000000000000000, -1.000000000000000000 ) ) ;
#114 = APPROVAL_STATUS ( 'not_yet_approved' ) ;
#115 = APPROVAL_STATUS ( 'not_yet_approved' ) ;
#116 = CARTESIAN_POINT ( 'NONE',  ( 0.000000000000000000, 0.000000000000000000, 0.000000000000000000 ) ) ;
#117 = LINE ( 'NONE', #14, #153 ) ;
#118 = CARTESIAN_POINT ( 'NONE',  ( 0.000000000000000000, 0.000000000000000000, 0.1968503937007874127 ) ) ;
#119 = APPROVAL_ROLE ( '' ) ;
#120 = DATE_AND_TIME ( #158, #178 ) ;
#121 = APPROVAL_PERSON_ORGANIZATION ( #12, #85, #119 ) ;
#122 = EDGE_CURVE ( 'NONE', #146, #13, #123, .T. ) ;
#123 = CIRCLE ( 'NONE', #47, 1.968503937007874072 ) ;
#124 = DIRECTION ( 'NONE',  ( -1.000000000000000000, 0.000000000000000000, 0.000000000000000000 ) ) ;
#125 = DATE_AND_TIME ( #93, #159 ) ;
#126 = DIMENSIONAL_EXPONENTS ( 1.000000000000000000, 0.000000000000000000, 0.000000000000000000, 0.000000000000000000, 0.000000000000000000, 0.000000000000000000, 0.000000000000000000 ) ;
#127 = PERSON_AND_ORGANIZATION_ROLE ( 'design_supplier' ) ;
#128 = CALENDAR_DATE ( 2021, 3, 6 ) ;
#129 =( CONVERSION_BASED_UNIT ( 'INCH', #4 ) LENGTH_UNIT ( ) NAMED_UNIT ( #126 ) );
#130 = PRODUCT_RELATED_PRODUCT_CATEGORY ( 'detail', '', ( #96 ) ) ;
#131 = COORDINATED_UNIVERSAL_TIME_OFFSET ( 5, 0, .BEHIND. ) ;
#132 = DATE_AND_TIME ( #1, #138 ) ;
#133 = CYLINDRICAL_SURFACE ( 'NONE', #148, 1.968503937007874072 ) ;
#134 = AXIS2_PLACEMENT_3D ( 'NONE', #73, #30, #155 ) ;
#135 = LOCAL_TIME ( 14, 29, 21.00000000000000000, #28 ) ;
#136 = PERSON_AND_ORGANIZATION ( #163, #45 ) ;
#137 = DIRECTION ( 'NONE',  ( 0.000000000000000000, 0.000000000000000000, 1.000000000000000000 ) ) ;
#138 = LOCAL_TIME ( 14, 29, 21.00000000000000000, #131 ) ;
#139 = EDGE_CURVE ( 'NONE', #13, #146, #145, .T. ) ;
#140 = SHAPE_DEFINITION_REPRESENTATION ( #26, #10 ) ;
#141 = AXIS2_PLACEMENT_3D ( 'NONE', #100, #2, #99 ) ;
#142 =( LENGTH_UNIT ( ) NAMED_UNIT ( * ) SI_UNIT ( $, .METRE. ) );
#143 =( NAMED_UNIT ( * ) PLANE_ANGLE_UNIT ( ) SI_UNIT ( $, .RADIAN. ) );
#144 = CC_DESIGN_PERSON_AND_ORGANIZATION_ASSIGNMENT ( #98, #15, ( #77 ) ) ;
#145 = CIRCLE ( 'NONE', #134, 1.968503937007874072 ) ;
#146 = VERTEX_POINT ( 'NONE', #86 ) ;
#147 = CC_DESIGN_SECURITY_CLASSIFICATION ( #90, ( #74 ) ) ;
#148 = AXIS2_PLACEMENT_3D ( 'NONE', #167, #27, #150 ) ;
#149 = EDGE_LOOP ( 'NONE', ( #50, #23 ) ) ;
#150 = DIRECTION ( 'NONE',  ( -1.000000000000000000, 0.000000000000000000, 0.000000000000000000 ) ) ;
#151 = PLANE ( 'NONE',  #141 ) ;
#152 = APPROVAL ( #114, 'UNSPECIFIED' ) ;
#153 = VECTOR ( 'NONE', #113, 39.37007874015748143 ) ;
#154 = DIRECTION ( 'NONE',  ( -0.000000000000000000, -0.000000000000000000, -1.000000000000000000 ) ) ;
#155 = DIRECTION ( 'NONE',  ( 1.000000000000000000, 0.000000000000000000, 0.000000000000000000 ) ) ;
#156 = DESIGN_CONTEXT ( 'detailed design', #6, 'design' ) ;
#157 = CARTESIAN_POINT ( 'NONE',  ( 0.000000000000000000, 0.000000000000000000, 0.000000000000000000 ) ) ;
#158 = CALENDAR_DATE ( 2021, 3, 6 ) ;
#159 = LOCAL_TIME ( 14, 29, 21.00000000000000000, #22 ) ;
#160 = FACE_OUTER_BOUND ( 'NONE', #46, .T. ) ;
#161 = EDGE_LOOP ( 'NONE', ( #107, #60, #95, #108 ) ) ;
#162 = CARTESIAN_POINT ( 'NONE',  ( 0.000000000000000000, 0.000000000000000000, 0.000000000000000000 ) ) ;
#163 = PERSON ( 'UNSPECIFIED', 'UNSPECIFIED', 'UNSPECIFIED', ('UNSPECIFIED'), ('UNSPECIFIED'), ('UNSPECIFIED') ) ;
#164 = CARTESIAN_POINT ( 'NONE',  ( 0.000000000000000000, 0.000000000000000000, 0.000000000000000000 ) ) ;
#165 = PERSON_AND_ORGANIZATION ( #163, #45 ) ;
#166 = EDGE_LOOP ( 'NONE', ( #24, #33 ) ) ;
#167 = CARTESIAN_POINT ( 'NONE',  ( 0.000000000000000000, 0.000000000000000000, 0.1968503937007874127 ) ) ;
#168 = CC_DESIGN_DATE_AND_TIME_ASSIGNMENT ( #132, #101, ( #90 ) ) ;
#169 = DIRECTION ( 'NONE',  ( 0.000000000000000000, 0.000000000000000000, 1.000000000000000000 ) ) ;
#170 = AXIS2_PLACEMENT_3D ( 'NONE', #97, #57, #124 ) ;
#171 = APPROVAL_STATUS ( 'not_yet_approved' ) ;
#172 = APPROVAL_PERSON_ORGANIZATION ( #71, #152, #36 ) ;
#173 = APPROVAL_PERSON_ORGANIZATION ( #19, #39, #7 ) ;
#174 = CC_DESIGN_PERSON_AND_ORGANIZATION_ASSIGNMENT ( #165, #127, ( #74 ) ) ;
#175 = EDGE_CURVE ( 'NONE', #112, #48, #69, .T. ) ;
#176 = CYLINDRICAL_SURFACE ( 'NONE', #170, 1.968503937007874072 ) ;
#177 = ORIENTED_EDGE ( 'NONE', *, *, #175, .T. ) ;
#178 = LOCAL_TIME ( 14, 29, 21.00000000000000000, #37 ) ;
ENDSEC;
END-ISO-10303-21;
