ISO-10303-21;
HEADER;
FILE_DESCRIPTION (( 'STEP AP203' ),
    '1' );
FILE_NAME ('25019-E0W.STEP',
    '2012-09-28T16:27:35',
    ( 'Admin' ),
    ( 'Thorlabs, Inc.' ),
    'SwSTEP 2.0',
    'SolidWorks 2011',
    '' );
FILE_SCHEMA (( 'CONFIG_CONTROL_DESIGN' ));
ENDSEC;

DATA;
#1 = ORIENTED_EDGE ( 'NONE', *, *, #4, .F. ) ;
#2 = EDGE_CURVE ( 'NONE', #63, #66, #164, .T. ) ;
#3 = ORIENTED_EDGE ( 'NONE', *, *, #64, .F. ) ;
#4 = EDGE_CURVE ( 'NONE', #66, #56, #151, .T. ) ;
#5 = ADVANCED_FACE ( 'NONE', ( #150 ), #143, .F. ) ;
#6 = EDGE_LOOP ( 'NONE', ( #55, #3, #57 ) ) ;
#7 = ORIENTED_EDGE ( 'NONE', *, *, #8, .T. ) ;
#8 = EDGE_CURVE ( 'NONE', #63, #56, #167, .T. ) ;
#9 = EDGE_LOOP ( 'NONE', ( #12, #10, #13, #14 ) ) ;
#10 = ORIENTED_EDGE ( 'NONE', *, *, #2, .T. ) ;
#11 = ADVANCED_FACE ( 'NONE', ( #141 ), #219, .T. ) ;
#12 = ORIENTED_EDGE ( 'NONE', *, *, #67, .F. ) ;
#13 = ORIENTED_EDGE ( 'NONE', *, *, #60, .T. ) ;
#14 = ORIENTED_EDGE ( 'NONE', *, *, #21, .F. ) ;
#15 = ORIENTED_EDGE ( 'NONE', *, *, #53, .F. ) ;
#16 = ADVANCED_FACE ( 'NONE', ( #163 ), #161, .T. ) ;
#17 = ORIENTED_EDGE ( 'NONE', *, *, #21, .T. ) ;
#18 = ADVANCED_FACE ( 'NONE', ( #105 ), #208, .T. ) ;
#19 = ORIENTED_EDGE ( 'NONE', *, *, #70, .T. ) ;
#20 = ORIENTED_EDGE ( 'NONE', *, *, #23, .F. ) ;
#21 = EDGE_CURVE ( 'NONE', #39, #36, #103, .T. ) ;
#22 = ORIENTED_EDGE ( 'NONE', *, *, #72, .F. ) ;
#23 = EDGE_CURVE ( 'NONE', #34, #37, #193, .T. ) ;
#24 = ORIENTED_EDGE ( 'NONE', *, *, #25, .T. ) ;
#25 = EDGE_CURVE ( 'NONE', #35, #49, #101, .T. ) ;
#26 = ORIENTED_EDGE ( 'NONE', *, *, #41, .T. ) ;
#27 = ORIENTED_EDGE ( 'NONE', *, *, #48, .T. ) ;
#28 = EDGE_LOOP ( 'NONE', ( #24, #27 ) ) ;
#29 = CLOSED_SHELL ( 'NONE', ( #31, #42, #77, #61, #5, #11, #16, #18, #32 ) ) ;
#30 = ORIENTED_EDGE ( 'NONE', *, *, #25, .F. ) ;
#31 = ADVANCED_FACE ( 'NONE', ( #138 ), #189, .T. ) ;
#32 = ADVANCED_FACE ( 'NONE', ( #190 ), #126, .T. ) ;
#33 = MANIFOLD_SOLID_BREP ( '25019-001-1-solid1', #29 ) ;
#34 = VERTEX_POINT ( 'NONE', #127 ) ;
#35 = VERTEX_POINT ( 'NONE', #123 ) ;
#36 = VERTEX_POINT ( 'NONE', #125 ) ;
#37 = VERTEX_POINT ( 'NONE', #122 ) ;
#38 = ORIENTED_EDGE ( 'NONE', *, *, #23, .T. ) ;
#39 = VERTEX_POINT ( 'NONE', #86 ) ;
#40 = ORIENTED_EDGE ( 'NONE', *, *, #72, .T. ) ;
#41 = EDGE_CURVE ( 'NONE', #35, #34, #87, .T. ) ;
#42 = ADVANCED_FACE ( 'NONE', ( #84 ), #83, .T. ) ;
#43 = EDGE_CURVE ( 'NONE', #37, #34, #157, .T. ) ;
#44 = EDGE_CURVE ( 'NONE', #36, #39, #118, .T. ) ;
#45 = ORIENTED_EDGE ( 'NONE', *, *, #53, .T. ) ;
#46 = ORIENTED_EDGE ( 'NONE', *, *, #41, .F. ) ;
#47 = ORIENTED_EDGE ( 'NONE', *, *, #48, .F. ) ;
#48 = EDGE_CURVE ( 'NONE', #49, #35, #153, .T. ) ;
#49 = VERTEX_POINT ( 'NONE', #113 ) ;
#50 = ORIENTED_EDGE ( 'NONE', *, *, #44, .T. ) ;
#51 = EDGE_LOOP ( 'NONE', ( #47, #45, #52, #46 ) ) ;
#52 = ORIENTED_EDGE ( 'NONE', *, *, #43, .T. ) ;
#53 = EDGE_CURVE ( 'NONE', #49, #37, #183, .T. ) ;
#54 = EDGE_LOOP ( 'NONE', ( #50, #40, #75, #71 ) ) ;
#55 = ORIENTED_EDGE ( 'NONE', *, *, #8, .F. ) ;
#56 = VERTEX_POINT ( 'NONE', #88 ) ;
#57 = ORIENTED_EDGE ( 'NONE', *, *, #4, .T. ) ;
#58 = ORIENTED_EDGE ( 'NONE', *, *, #44, .F. ) ;
#59 = ORIENTED_EDGE ( 'NONE', *, *, #60, .F. ) ;
#60 = EDGE_CURVE ( 'NONE', #66, #36, #175, .T. ) ;
#61 = ADVANCED_FACE ( 'NONE', ( #176 ), #218, .F. ) ;
#62 = EDGE_LOOP ( 'NONE', ( #68, #7, #1 ) ) ;
#63 = VERTEX_POINT ( 'NONE', #212 ) ;
#64 = EDGE_CURVE ( 'NONE', #66, #63, #216, .T. ) ;
#65 = EDGE_LOOP ( 'NONE', ( #15, #30, #26, #38 ) ) ;
#66 = VERTEX_POINT ( 'NONE', #119 ) ;
#67 = EDGE_CURVE ( 'NONE', #63, #39, #93, .T. ) ;
#68 = ORIENTED_EDGE ( 'NONE', *, *, #2, .F. ) ;
#69 = ORIENTED_EDGE ( 'NONE', *, *, #67, .T. ) ;
#70 = EDGE_CURVE ( 'NONE', #36, #37, #95, .T. ) ;
#71 = ORIENTED_EDGE ( 'NONE', *, *, #70, .F. ) ;
#72 = EDGE_CURVE ( 'NONE', #39, #34, #203, .T. ) ;
#73 = EDGE_LOOP ( 'NONE', ( #74, #69, #58, #59 ) ) ;
#74 = ORIENTED_EDGE ( 'NONE', *, *, #64, .T. ) ;
#75 = ORIENTED_EDGE ( 'NONE', *, *, #43, .F. ) ;
#76 = EDGE_LOOP ( 'NONE', ( #22, #17, #19, #20 ) ) ;
#77 = ADVANCED_FACE ( 'NONE', ( #204 ), #213, .T. ) ;
#78 = CARTESIAN_POINT ( 'NONE',  ( 0.0000000000000000000, 1.656145671744060900E-015, -1.358578643762691000 ) ) ;
#79 = CARTESIAN_POINT ( 'NONE',  ( 0.0000000000000000000, 2.670600899570118400E-016, 3.178519179884697500 ) ) ;
#80 = CARTESIAN_POINT ( 'NONE',  ( 0.0000000000000000000, 1.699443474555835200E-015, -1.500000000000000000 ) ) ;
#81 = DIRECTION ( 'NONE',  ( 0.0000000000000000000, -0.7071067811865477900, 0.7071067811865473500 ) ) ;
#82 = VECTOR ( 'NONE', #81, 999.9999999999998900 ) ;
#83 = CYLINDRICAL_SURFACE ( 'NONE', #85, 6.349999999999999600 ) ;
#84 = FACE_OUTER_BOUND ( 'NONE', #54, .T. ) ;
#85 = AXIS2_PLACEMENT_3D ( 'NONE', #80, #121, #160 ) ;
#86 = CARTESIAN_POINT ( 'NONE',  ( 7.776507174585693100E-016, -6.350000000000000500, 3.178519179884695700 ) ) ;
#87 = LINE ( 'NONE', #124, #82 ) ;
#88 = CARTESIAN_POINT ( 'NONE',  ( 0.0000000000000000000, 5.091715108194003900E-015, 1.499999999999999600 ) ) ;
#89 = DIRECTION ( 'NONE',  ( -0.0000000000000000000, 3.061616997868382600E-016, -1.000000000000000000 ) ) ;
#90 = AXIS2_PLACEMENT_3D ( 'NONE', #211, #210, #199 ) ;
#91 = DIRECTION ( 'NONE',  ( 8.659560562354828100E-017, -0.7071067811865386900, -0.7071067811865564500 ) ) ;
#92 = VECTOR ( 'NONE', #91, 1000.000000000000000 ) ;
#93 = LINE ( 'NONE', #215, #92 ) ;
#94 = CARTESIAN_POINT ( 'NONE',  ( 0.0000000000000000000, 6.350000000000001400, -1.499999999999998000 ) ) ;
#95 = LINE ( 'NONE', #94, #207 ) ;
#96 = DIRECTION ( 'NONE',  ( 0.0000000000000000000, 1.000000000000000000, 2.794075062123208900E-016 ) ) ;
#97 = DIRECTION ( 'NONE',  ( -0.0000000000000000000, 3.061616997868382600E-016, -1.000000000000000000 ) ) ;
#98 = AXIS2_PLACEMENT_3D ( 'NONE', #214, #97, #96 ) ;
#99 = CARTESIAN_POINT ( 'NONE',  ( 0.0000000000000000000, 1.699443474555835400E-015, -1.500000000000000700 ) ) ;
#100 = AXIS2_PLACEMENT_3D ( 'NONE', #120, #173, #137 ) ;
#101 = CIRCLE ( 'NONE', #139, 6.208578643762689500 ) ;
#102 = AXIS2_PLACEMENT_3D ( 'NONE', #99, #170, #169 ) ;
#103 = CIRCLE ( 'NONE', #188, 6.350000000000000500 ) ;
#104 = CARTESIAN_POINT ( 'NONE',  ( 0.0000000000000000000, 1.699443474555835200E-015, -1.500000000000000000 ) ) ;
#105 = FACE_OUTER_BOUND ( 'NONE', #65, .T. ) ;
#106 = DIRECTION ( 'NONE',  ( 0.0000000000000000000, 0.0000000000000000000, 1.000000000000000000 ) ) ;
#107 = DIRECTION ( 'NONE',  ( -1.000000000000000000, 0.0000000000000000000, 0.0000000000000000000 ) ) ;
#108 = CARTESIAN_POINT ( 'NONE',  ( 0.0000000000000000000, 8.666836511356361200E-016, 13.00000000000000000 ) ) ;
#109 = AXIS2_PLACEMENT_3D ( 'NONE', #108, #107, #106 ) ;
#110 = DIRECTION ( 'NONE',  ( 0.0000000000000000000, 1.000000000000000000, 3.143334444888611200E-016 ) ) ;
#111 = DIRECTION ( 'NONE',  ( -0.0000000000000000000, 3.061616997868382600E-016, -1.000000000000000000 ) ) ;
#112 = AXIS2_PLACEMENT_3D ( 'NONE', #158, #111, #110 ) ;
#113 = CARTESIAN_POINT ( 'NONE',  ( 7.689911568962142300E-016, 6.208578643762691300, -1.499999999999998700 ) ) ;
#114 = DIRECTION ( 'NONE',  ( 1.000000000000000000, 0.0000000000000000000, -0.0000000000000000000 ) ) ;
#115 = DIRECTION ( 'NONE',  ( 0.0000000000000000000, 1.000000000000000000, 2.731847993664262700E-016 ) ) ;
#116 = DIRECTION ( 'NONE',  ( -0.0000000000000000000, 3.061616997868382600E-016, -1.000000000000000000 ) ) ;
#117 = AXIS2_PLACEMENT_3D ( 'NONE', #79, #116, #115 ) ;
#118 = CIRCLE ( 'NONE', #117, 6.350000000000000500 ) ;
#119 = CARTESIAN_POINT ( 'NONE',  ( 0.0000000000000000000, 6.208578643762693100, 3.319940536122012500 ) ) ;
#120 = CARTESIAN_POINT ( 'NONE',  ( 0.0000000000000000000, 1.656145671744060900E-015, -1.358578643762691000 ) ) ;
#121 = DIRECTION ( 'NONE',  ( -0.0000000000000000000, 3.061616997868382600E-016, -1.000000000000000000 ) ) ;
#122 = CARTESIAN_POINT ( 'NONE',  ( 0.0000000000000000000, 6.350000000000000500, -1.358578643762689000 ) ) ;
#123 = CARTESIAN_POINT ( 'NONE',  ( 0.0000000000000000000, -6.208578643762687800, -1.500000000000002700 ) ) ;
#124 = CARTESIAN_POINT ( 'NONE',  ( 0.0000000000000000000, -6.208578643762687800, -1.500000000000002700 ) ) ;
#125 = CARTESIAN_POINT ( 'NONE',  ( 0.0000000000000000000, 6.350000000000000500, 3.178519179884699200 ) ) ;
#126 = PLANE ( 'NONE',  #136 ) ;
#127 = CARTESIAN_POINT ( 'NONE',  ( 7.776507174585691200E-016, -6.349999999999997000, -1.358578643762693000 ) ) ;
#128 = DIRECTION ( 'NONE',  ( 0.0000000000000000000, 1.000000000000000000, 3.143334444888611200E-016 ) ) ;
#129 = DIRECTION ( 'NONE',  ( -0.0000000000000000000, 3.061616997868382600E-016, -1.000000000000000000 ) ) ;
#130 = DIRECTION ( 'NONE',  ( 0.0000000000000000000, 1.000000000000000000, 3.061616997868382600E-016 ) ) ;
#131 = DIRECTION ( 'NONE',  ( -0.0000000000000000000, 3.061616997868382600E-016, -1.000000000000000000 ) ) ;
#132 = CARTESIAN_POINT ( 'NONE',  ( 0.0000000000000000000, 1.699443474555835200E-015, -1.500000000000000200 ) ) ;
#133 = DIRECTION ( 'NONE',  ( 0.0000000000000000000, -1.000000000000000000, -3.143334444888611200E-016 ) ) ;
#134 = DIRECTION ( 'NONE',  ( 0.0000000000000000000, -3.061616997868382600E-016, 1.000000000000000000 ) ) ;
#135 = CARTESIAN_POINT ( 'NONE',  ( 0.0000000000000000000, 1.699443474555835400E-015, -1.500000000000000700 ) ) ;
#136 = AXIS2_PLACEMENT_3D ( 'NONE', #132, #131, #130 ) ;
#137 = DIRECTION ( 'NONE',  ( 0.0000000000000000000, 1.000000000000000000, 3.073328992872296900E-016 ) ) ;
#138 = FACE_OUTER_BOUND ( 'NONE', #51, .T. ) ;
#139 = AXIS2_PLACEMENT_3D ( 'NONE', #185, #129, #128 ) ;
#140 = CARTESIAN_POINT ( 'NONE',  ( 0.0000000000000000000, 2.237622871452363800E-016, 3.319940536122009800 ) ) ;
#141 = FACE_OUTER_BOUND ( 'NONE', #9, .T. ) ;
#142 = AXIS2_PLACEMENT_3D ( 'NONE', #209, #172, #171 ) ;
#143 = SPHERICAL_SURFACE ( 'NONE', #168, 11.50000000000000000 ) ;
#144 = DIRECTION ( 'NONE',  ( -1.224646799147353200E-016, 1.000000000000000000, 0.0000000000000000000 ) ) ;
#145 = DIRECTION ( 'NONE',  ( 1.000000000000000000, 1.224646799147353200E-016, 3.749399456654643500E-032 ) ) ;
#146 = DIRECTION ( 'NONE',  ( 1.000000000000000000, 0.0000000000000000000, -0.0000000000000000000 ) ) ;
#147 = DIRECTION ( 'NONE',  ( 0.0000000000000000000, 1.000000000000000000, 2.794075062123208900E-016 ) ) ;
#148 = DIRECTION ( 'NONE',  ( -0.0000000000000000000, 3.061616997868382600E-016, -1.000000000000000000 ) ) ;
#149 = AXIS2_PLACEMENT_3D ( 'NONE', #140, #148, #147 ) ;
#150 = FACE_OUTER_BOUND ( 'NONE', #6, .T. ) ;
#151 = CIRCLE ( 'NONE', #109, 11.50000000000000200 ) ;
#152 = DIRECTION ( 'NONE',  ( 0.0000000000000000000, 1.000000000000000000, 3.016910393003142900E-016 ) ) ;
#153 = CIRCLE ( 'NONE', #112, 6.208578643762689500 ) ;
#154 = DIRECTION ( 'NONE',  ( 0.0000000000000000000, 1.000000000000000000, 3.073328992872296900E-016 ) ) ;
#155 = DIRECTION ( 'NONE',  ( -0.0000000000000000000, 3.061616997868382600E-016, -1.000000000000000000 ) ) ;
#156 = AXIS2_PLACEMENT_3D ( 'NONE', #78, #155, #154 ) ;
#157 = CIRCLE ( 'NONE', #156, 6.349999999999998800 ) ;
#158 = CARTESIAN_POINT ( 'NONE',  ( 0.0000000000000000000, 1.699443474555835400E-015, -1.500000000000000700 ) ) ;
#159 = CARTESIAN_POINT ( 'NONE',  ( 0.0000000000000000000, 8.666836511356361200E-016, 13.00000000000000000 ) ) ;
#160 = DIRECTION ( 'NONE',  ( 0.0000000000000000000, 1.000000000000000000, 3.073328992872296400E-016 ) ) ;
#161 = CYLINDRICAL_SURFACE ( 'NONE', #220, 6.349999999999999600 ) ;
#162 = DIRECTION ( 'NONE',  ( 0.0000000000000000000, 1.000000000000000000, 3.073328992872296400E-016 ) ) ;
#163 = FACE_OUTER_BOUND ( 'NONE', #76, .T. ) ;
#164 = CIRCLE ( 'NONE', #149, 6.208578643762692200 ) ;
#165 = CARTESIAN_POINT ( 'NONE',  ( 0.0000000000000000000, 8.666836511356361200E-016, 13.00000000000000000 ) ) ;
#166 = AXIS2_PLACEMENT_3D ( 'NONE', #165, #145, #144 ) ;
#167 = CIRCLE ( 'NONE', #166, 11.50000000000000000 ) ;
#168 = AXIS2_PLACEMENT_3D ( 'NONE', #174, #146, #152 ) ;
#169 = DIRECTION ( 'NONE',  ( 0.0000000000000000000, -1.000000000000000000, -3.143334444888611200E-016 ) ) ;
#170 = DIRECTION ( 'NONE',  ( 0.0000000000000000000, -3.061616997868382600E-016, 1.000000000000000000 ) ) ;
#171 = DIRECTION ( 'NONE',  ( 0.0000000000000000000, 1.000000000000000000, 2.731847993664262700E-016 ) ) ;
#172 = DIRECTION ( 'NONE',  ( -0.0000000000000000000, 3.061616997868382600E-016, -1.000000000000000000 ) ) ;
#173 = DIRECTION ( 'NONE',  ( -0.0000000000000000000, 3.061616997868382600E-016, -1.000000000000000000 ) ) ;
#174 = CARTESIAN_POINT ( 'NONE',  ( 0.0000000000000000000, 8.666836511356361200E-016, 13.00000000000000000 ) ) ;
#175 = LINE ( 'NONE', #179, #217 ) ;
#176 = FACE_OUTER_BOUND ( 'NONE', #62, .T. ) ;
#177 = AXIS2_PLACEMENT_3D ( 'NONE', #159, #114, #184 ) ;
#178 = DIRECTION ( 'NONE',  ( 0.0000000000000000000, 0.7071067811865391400, -0.7071067811865560100 ) ) ;
#179 = CARTESIAN_POINT ( 'NONE',  ( 0.0000000000000000000, 6.350000000000000500, 3.178519179884699200 ) ) ;
#180 = DIRECTION ( 'NONE',  ( 8.659560562354932900E-017, 0.7071067811865472400, 0.7071067811865479100 ) ) ;
#181 = VECTOR ( 'NONE', #180, 999.9999999999998900 ) ;
#182 = CARTESIAN_POINT ( 'NONE',  ( 7.603315963338592500E-016, 6.208578643762691300, -1.499999999999998700 ) ) ;
#183 = LINE ( 'NONE', #182, #181 ) ;
#184 = DIRECTION ( 'NONE',  ( 0.0000000000000000000, 1.000000000000000000, 3.016910393003142900E-016 ) ) ;
#185 = CARTESIAN_POINT ( 'NONE',  ( 0.0000000000000000000, 1.699443474555835400E-015, -1.500000000000000700 ) ) ;
#186 = DIRECTION ( 'NONE',  ( 0.0000000000000000000, 1.000000000000000000, 2.731847993664262700E-016 ) ) ;
#187 = DIRECTION ( 'NONE',  ( -0.0000000000000000000, 3.061616997868382600E-016, -1.000000000000000000 ) ) ;
#188 = AXIS2_PLACEMENT_3D ( 'NONE', #192, #187, #186 ) ;
#189 = CONICAL_SURFACE ( 'NONE', #191, 6.208578643762689500, 0.7853981633974482800 ) ;
#190 = FACE_OUTER_BOUND ( 'NONE', #28, .T. ) ;
#191 = AXIS2_PLACEMENT_3D ( 'NONE', #135, #134, #133 ) ;
#192 = CARTESIAN_POINT ( 'NONE',  ( 0.0000000000000000000, 2.670600899570118400E-016, 3.178519179884697500 ) ) ;
#193 = CIRCLE ( 'NONE', #100, 6.349999999999998800 ) ;
#194 = ADVANCED_BREP_SHAPE_REPRESENTATION ( '25019-E0W', ( #33, #298 ), #195 ) ;
#195 =( GEOMETRIC_REPRESENTATION_CONTEXT ( 3 ) GLOBAL_UNCERTAINTY_ASSIGNED_CONTEXT ( ( #196 ) ) GLOBAL_UNIT_ASSIGNED_CONTEXT ( ( #205, #198, #197 ) ) REPRESENTATION_CONTEXT ( 'NONE', 'WORKASPACE' ) );
#196 = UNCERTAINTY_MEASURE_WITH_UNIT (LENGTH_MEASURE( 1.000000000000000100E-005 ), #205, 'distance_accuracy_value', 'NONE');
#197 =( NAMED_UNIT ( * ) SI_UNIT ( $, .STERADIAN. ) SOLID_ANGLE_UNIT ( ) );
#198 =( NAMED_UNIT ( * ) PLANE_ANGLE_UNIT ( ) SI_UNIT ( $, .RADIAN. ) );
#199 = DIRECTION ( 'NONE',  ( 0.0000000000000000000, 1.000000000000000000, 2.731847993664262700E-016 ) ) ;
#200 = DIRECTION ( 'NONE',  ( -0.0000000000000000000, 3.061616997868382600E-016, -1.000000000000000000 ) ) ;
#201 = VECTOR ( 'NONE', #200, 1000.000000000000000 ) ;
#202 = CARTESIAN_POINT ( 'NONE',  ( 7.776507174585692200E-016, -6.349999999999997900, -1.500000000000002000 ) ) ;
#203 = LINE ( 'NONE', #202, #201 ) ;
#204 = FACE_OUTER_BOUND ( 'NONE', #73, .T. ) ;
#205 =( LENGTH_UNIT ( ) NAMED_UNIT ( * ) SI_UNIT ( .MILLI., .METRE. ) );
#206 = DIRECTION ( 'NONE',  ( -0.0000000000000000000, 3.061616997868382600E-016, -1.000000000000000000 ) ) ;
#207 = VECTOR ( 'NONE', #206, 1000.000000000000000 ) ;
#208 = CONICAL_SURFACE ( 'NONE', #102, 6.208578643762689500, 0.7853981633974482800 ) ;
#209 = CARTESIAN_POINT ( 'NONE',  ( 0.0000000000000000000, 2.670600899570118400E-016, 3.178519179884697500 ) ) ;
#210 = DIRECTION ( 'NONE',  ( -0.0000000000000000000, 3.061616997868382600E-016, -1.000000000000000000 ) ) ;
#211 = CARTESIAN_POINT ( 'NONE',  ( 0.0000000000000000000, 2.670600899570118400E-016, 3.178519179884697500 ) ) ;
#212 = CARTESIAN_POINT ( 'NONE',  ( 7.603315963338596400E-016, -6.208578643762688600, 3.319940536122008500 ) ) ;
#213 = CONICAL_SURFACE ( 'NONE', #90, 6.350000000000000500, 0.7853981633974360700 ) ;
#214 = CARTESIAN_POINT ( 'NONE',  ( 0.0000000000000000000, 2.237622871452363800E-016, 3.319940536122009800 ) ) ;
#215 = CARTESIAN_POINT ( 'NONE',  ( 7.776507174585693100E-016, -6.350000000000000500, 3.178519179884695700 ) ) ;
#216 = CIRCLE ( 'NONE', #98, 6.208578643762692200 ) ;
#217 = VECTOR ( 'NONE', #178, 1000.000000000000000 ) ;
#218 = SPHERICAL_SURFACE ( 'NONE', #177, 11.50000000000000000 ) ;
#219 = CONICAL_SURFACE ( 'NONE', #142, 6.350000000000000500, 0.7853981633974360700 ) ;
#220 = AXIS2_PLACEMENT_3D ( 'NONE', #104, #89, #162 ) ;
#221 = APPROVAL_PERSON_ORGANIZATION ( #225, #223, #222 ) ;
#222 = APPROVAL_ROLE ( '' ) ;
#223 = APPROVAL ( #224, 'UNSPECIFIED' ) ;
#224 = APPROVAL_STATUS ( 'not_yet_approved' ) ;
#225 = PERSON_AND_ORGANIZATION ( #300, #299 ) ;
#226 = PRODUCT_DEFINITION ( 'UNKNOWN', '', #250, #227 ) ;
#227 = DESIGN_CONTEXT ( 'detailed design', #229, 'design' ) ;
#228 = APPLICATION_PROTOCOL_DEFINITION ( 'international standard', 'config_control_design', 1994, #229 ) ;
#229 = APPLICATION_CONTEXT ( 'configuration controlled 3d designs of mechanical parts and assemblies' ) ;
#230 = CC_DESIGN_PERSON_AND_ORGANIZATION_ASSIGNMENT ( #232, #231, ( #301 ) ) ;
#231 = PERSON_AND_ORGANIZATION_ROLE ( 'design_owner' ) ;
#232 = PERSON_AND_ORGANIZATION ( #300, #299 ) ;
#233 = CC_DESIGN_PERSON_AND_ORGANIZATION_ASSIGNMENT ( #235, #234, ( #250 ) ) ;
#234 = PERSON_AND_ORGANIZATION_ROLE ( 'design_supplier' ) ;
#235 = PERSON_AND_ORGANIZATION ( #300, #299 ) ;
#236 = CC_DESIGN_PERSON_AND_ORGANIZATION_ASSIGNMENT ( #238, #237, ( #250 ) ) ;
#237 = PERSON_AND_ORGANIZATION_ROLE ( 'creator' ) ;
#238 = PERSON_AND_ORGANIZATION ( #300, #299 ) ;
#239 = CC_DESIGN_APPROVAL ( #247, ( #250 ) ) ;
#240 = APPROVAL_DATE_TIME ( #241, #247 ) ;
#241 = DATE_AND_TIME ( #242, #243 ) ;
#242 = CALENDAR_DATE ( 2012, 28, 9 ) ;
#243 = LOCAL_TIME ( 12, 27, 35.00000000000000000, #244 ) ;
#244 = COORDINATED_UNIVERSAL_TIME_OFFSET ( 5, 0, .BEHIND. ) ;
#245 = APPROVAL_PERSON_ORGANIZATION ( #249, #247, #246 ) ;
#246 = APPROVAL_ROLE ( '' ) ;
#247 = APPROVAL ( #248, 'UNSPECIFIED' ) ;
#248 = APPROVAL_STATUS ( 'not_yet_approved' ) ;
#249 = PERSON_AND_ORGANIZATION ( #300, #299 ) ;
#250 = PRODUCT_DEFINITION_FORMATION_WITH_SPECIFIED_SOURCE ( 'ANY', '', #301, .NOT_KNOWN. ) ;
#251 = CC_DESIGN_DATE_AND_TIME_ASSIGNMENT ( #253, #252, ( #226 ) ) ;
#252 = DATE_TIME_ROLE ( 'creation_date' ) ;
#253 = DATE_AND_TIME ( #254, #255 ) ;
#254 = CALENDAR_DATE ( 2012, 28, 9 ) ;
#255 = LOCAL_TIME ( 12, 27, 35.00000000000000000, #256 ) ;
#256 = COORDINATED_UNIVERSAL_TIME_OFFSET ( 5, 0, .BEHIND. ) ;
#257 = DIRECTION ( 'NONE',  ( 1.000000000000000000, 0.0000000000000000000, 0.0000000000000000000 ) ) ;
#258 = DIRECTION ( 'NONE',  ( 0.0000000000000000000, 0.0000000000000000000, 1.000000000000000000 ) ) ;
#259 = PRODUCT_DEFINITION_SHAPE ( 'NONE', 'NONE',  #226 ) ;
#260 = PRODUCT_RELATED_PRODUCT_CATEGORY ( 'detail', '', ( #301 ) ) ;
#261 = CC_DESIGN_SECURITY_CLASSIFICATION ( #295, ( #250 ) ) ;
#262 = CC_DESIGN_APPROVAL ( #283, ( #295 ) ) ;
#263 = APPROVAL_DATE_TIME ( #264, #283 ) ;
#264 = DATE_AND_TIME ( #265, #266 ) ;
#265 = CALENDAR_DATE ( 2012, 28, 9 ) ;
#266 = LOCAL_TIME ( 12, 27, 35.00000000000000000, #267 ) ;
#267 = COORDINATED_UNIVERSAL_TIME_OFFSET ( 5, 0, .BEHIND. ) ;
#268 = APPLICATION_CONTEXT ( 'configuration controlled 3d designs of mechanical parts and assemblies' ) ;
#269 = SHAPE_DEFINITION_REPRESENTATION ( #259, #194 ) ;
#270 = MECHANICAL_CONTEXT ( 'NONE', #268, 'mechanical' ) ;
#271 = APPLICATION_PROTOCOL_DEFINITION ( 'international standard', 'config_control_design', 1994, #268 ) ;
#272 = CC_DESIGN_PERSON_AND_ORGANIZATION_ASSIGNMENT ( #274, #273, ( #226 ) ) ;
#273 = PERSON_AND_ORGANIZATION_ROLE ( 'creator' ) ;
#274 = PERSON_AND_ORGANIZATION ( #300, #299 ) ;
#275 = CC_DESIGN_APPROVAL ( #223, ( #226 ) ) ;
#276 = APPROVAL_DATE_TIME ( #277, #223 ) ;
#277 = DATE_AND_TIME ( #278, #279 ) ;
#278 = CALENDAR_DATE ( 2012, 28, 9 ) ;
#279 = LOCAL_TIME ( 12, 27, 35.00000000000000000, #280 ) ;
#280 = COORDINATED_UNIVERSAL_TIME_OFFSET ( 5, 0, .BEHIND. ) ;
#281 = APPROVAL_PERSON_ORGANIZATION ( #285, #283, #282 ) ;
#282 = APPROVAL_ROLE ( '' ) ;
#283 = APPROVAL ( #284, 'UNSPECIFIED' ) ;
#284 = APPROVAL_STATUS ( 'not_yet_approved' ) ;
#285 = PERSON_AND_ORGANIZATION ( #300, #299 ) ;
#286 = CC_DESIGN_DATE_AND_TIME_ASSIGNMENT ( #288, #287, ( #295 ) ) ;
#287 = DATE_TIME_ROLE ( 'classification_date' ) ;
#288 = DATE_AND_TIME ( #289, #290 ) ;
#289 = CALENDAR_DATE ( 2012, 28, 9 ) ;
#290 = LOCAL_TIME ( 12, 27, 35.00000000000000000, #291 ) ;
#291 = COORDINATED_UNIVERSAL_TIME_OFFSET ( 5, 0, .BEHIND. ) ;
#292 = CC_DESIGN_PERSON_AND_ORGANIZATION_ASSIGNMENT ( #294, #293, ( #295 ) ) ;
#293 = PERSON_AND_ORGANIZATION_ROLE ( 'classification_officer' ) ;
#294 = PERSON_AND_ORGANIZATION ( #300, #299 ) ;
#295 = SECURITY_CLASSIFICATION ( '', '', #296 ) ;
#296 = SECURITY_CLASSIFICATION_LEVEL ( 'unclassified' ) ;
#297 = CARTESIAN_POINT ( 'NONE',  ( 0.0000000000000000000, 0.0000000000000000000, 0.0000000000000000000 ) ) ;
#298 = AXIS2_PLACEMENT_3D ( 'NONE', #297, #258, #257 ) ;
#299 = ORGANIZATION ( 'UNSPECIFIED', 'UNSPECIFIED', '' ) ;
#300 = PERSON ( 'UNSPECIFIED', 'UNSPECIFIED', 'UNSPECIFIED', ('UNSPECIFIED'), ('UNSPECIFIED'), ('UNSPECIFIED') ) ;
#301 = PRODUCT ( '25019-E0W', '25019-E0W', '', ( #270 ) ) ;
ENDSEC;
END-ISO-10303-21;
