ISO-10303-21;
HEADER;
FILE_DESCRIPTION (( 'STEP AP203' ),
    '1' );
FILE_NAME ('Web Model 48466_48468.step',
    '2018-03-12T19:21:37',
    ( '' ),
    ( '' ),
    'SwSTEP 2.0',
    'SolidWorks 2016',
    '' );
FILE_SCHEMA (( 'CONFIG_CONTROL_DESIGN' ));
ENDSEC;

DATA;
#1 = ORIENTED_EDGE ( 'NONE', *, *, #126, .F. ) ;
#2 = DIRECTION ( 'NONE',  ( -0.0000000000000000000, -4.625929269271485900E-016, 1.000000000000000000 ) ) ;
#3 = APPROVAL_DATE_TIME ( #148, #224 ) ;
#4 = CARTESIAN_POINT ( 'NONE',  ( 4.750000000000000000, 14.99999999999998200, 15.00000000000000200 ) ) ;
#5 = LINE ( 'NONE', #186, #131 ) ;
#6 = ORIENTED_EDGE ( 'NONE', *, *, #59, .T. ) ;
#7 = LOCAL_TIME ( 15, 21, 37.00000000000000000, #29 ) ;
#8 = CARTESIAN_POINT ( 'NONE',  ( -4.750000000000000000, 14.99999999999999600, -15.00000000000000200 ) ) ;
#9 = DIRECTION ( 'NONE',  ( 0.0000000000000000000, 0.0000000000000000000, -1.000000000000000000 ) ) ;
#10 = DIRECTION ( 'NONE',  ( 0.0000000000000000000, 1.000000000000000000, -1.734723475976808100E-016 ) ) ;
#11 = VECTOR ( 'NONE', #135, 1000.000000000000000 ) ;
#12 = PERSON_AND_ORGANIZATION_ROLE ( 'creator' ) ;
#13 = PERSON_AND_ORGANIZATION_ROLE ( 'creator' ) ;
#14 = ADVANCED_FACE ( 'NONE', ( #43 ), #81, .F. ) ;
#15 = CARTESIAN_POINT ( 'NONE',  ( -4.750000000000000000, 0.0000000000000000000, 0.0000000000000000000 ) ) ;
#16 = VECTOR ( 'NONE', #120, 1000.000000000000000 ) ;
#17 = DIRECTION ( 'NONE',  ( -1.000000000000000000, -0.0000000000000000000, -0.0000000000000000000 ) ) ;
#18 = COORDINATED_UNIVERSAL_TIME_OFFSET ( 5, 0, .BEHIND. ) ;
#19 = LINE ( 'NONE', #89, #114 ) ;
#20 = EDGE_CURVE ( 'NONE', #153, #234, #67, .T. ) ;
#21 = EDGE_CURVE ( 'NONE', #179, #32, #202, .T. ) ;
#22 = DATE_AND_TIME ( #102, #173 ) ;
#23 = APPROVAL ( #51, 'UNSPECIFIED' ) ;
#24 = FACE_OUTER_BOUND ( 'NONE', #129, .T. ) ;
#25 = CARTESIAN_POINT ( 'NONE',  ( 4.750000000000000000, 14.99999999999998200, 15.00000000000000200 ) ) ;
#26 = CARTESIAN_POINT ( 'NONE',  ( 4.750000000000000000, -15.00000000000000400, 15.00000000000000700 ) ) ;
#27 = PLANE ( 'NONE',  #149 ) ;
#28 = DIRECTION ( 'NONE',  ( -1.000000000000000000, -0.0000000000000000000, -0.0000000000000000000 ) ) ;
#29 = COORDINATED_UNIVERSAL_TIME_OFFSET ( 5, 0, .BEHIND. ) ;
#30 = VECTOR ( 'NONE', #154, 1000.000000000000000 ) ;
#31 = MECHANICAL_CONTEXT ( 'NONE', #170, 'mechanical' ) ;
#32 = VERTEX_POINT ( 'NONE', #168 ) ;
#33 = CC_DESIGN_PERSON_AND_ORGANIZATION_ASSIGNMENT ( #34, #172, ( #37 ) ) ;
#34 = PERSON_AND_ORGANIZATION ( #176, #117 ) ;
#35 = DATE_TIME_ROLE ( 'classification_date' ) ;
#36 = ORIENTED_EDGE ( 'NONE', *, *, #50, .F. ) ;
#37 = SECURITY_CLASSIFICATION ( '', '', #71 ) ;
#38 = APPROVAL_DATE_TIME ( #22, #214 ) ;
#39 = CC_DESIGN_APPROVAL ( #23, ( #218 ) ) ;
#40 = ORIENTED_EDGE ( 'NONE', *, *, #167, .T. ) ;
#41 = AXIS2_PLACEMENT_3D ( 'NONE', #65, #204, #206 ) ;
#42 = VECTOR ( 'NONE', #9, 1000.000000000000000 ) ;
#43 = FACE_OUTER_BOUND ( 'NONE', #145, .T. ) ;
#44 = CARTESIAN_POINT ( 'NONE',  ( -4.750000000000000000, 14.99999999999999600, -15.00000000000000200 ) ) ;
#45 = CARTESIAN_POINT ( 'NONE',  ( 4.750000000000000000, -15.00000000000000400, -15.00000000000000700 ) ) ;
#46 = PLANE ( 'NONE',  #41 ) ;
#47 = CALENDAR_DATE ( 2018, 12, 3 ) ;
#48 = CARTESIAN_POINT ( 'NONE',  ( 4.750000000000000000, 14.99999999999998200, 15.00000000000000200 ) ) ;
#49 = DATE_TIME_ROLE ( 'creation_date' ) ;
#50 = EDGE_CURVE ( 'NONE', #95, #187, #82, .T. ) ;
#51 = APPROVAL_STATUS ( 'not_yet_approved' ) ;
#52 = DIRECTION ( 'NONE',  ( 1.000000000000000000, 0.0000000000000000000, 0.0000000000000000000 ) ) ;
#53 = ORIENTED_EDGE ( 'NONE', *, *, #205, .F. ) ;
#54 = CALENDAR_DATE ( 2018, 12, 3 ) ;
#55 = VECTOR ( 'NONE', #28, 1000.000000000000000 ) ;
#56 = DATE_AND_TIME ( #197, #7 ) ;
#57 = ORIENTED_EDGE ( 'NONE', *, *, #126, .T. ) ;
#58 = CC_DESIGN_DATE_AND_TIME_ASSIGNMENT ( #157, #35, ( #37 ) ) ;
#59 = EDGE_CURVE ( 'NONE', #153, #119, #151, .T. ) ;
#60 = DIRECTION ( 'NONE',  ( -0.0000000000000000000, 1.000000000000000000, 0.0000000000000000000 ) ) ;
#61 = LINE ( 'NONE', #87, #215 ) ;
#62 = PLANE ( 'NONE',  #132 ) ;
#63 = EDGE_LOOP ( 'NONE', ( #165, #171, #111, #199 ) ) ;
#64 = PLANE ( 'NONE',  #68 ) ;
#65 = CARTESIAN_POINT ( 'NONE',  ( 4.750000000000000000, 14.99999999999998200, 15.00000000000000200 ) ) ;
#66 = CARTESIAN_POINT ( 'NONE',  ( -4.750000000000000000, -15.00000000000000400, 15.00000000000000700 ) ) ;
#67 = LINE ( 'NONE', #136, #11 ) ;
#68 = AXIS2_PLACEMENT_3D ( 'NONE', #223, #181, #88 ) ;
#69 = APPLICATION_CONTEXT ( 'configuration controlled 3d designs of mechanical parts and assemblies' ) ;
#70 = PERSON_AND_ORGANIZATION ( #176, #117 ) ;
#71 = SECURITY_CLASSIFICATION_LEVEL ( 'unclassified' ) ;
#72 = APPROVAL_ROLE ( '' ) ;
#73 = ORIENTED_EDGE ( 'NONE', *, *, #77, .F. ) ;
#74 = CARTESIAN_POINT ( 'NONE',  ( 0.0000000000000000000, 0.0000000000000000000, 0.0000000000000000000 ) ) ;
#75 = SHAPE_DEFINITION_REPRESENTATION ( #231, #100 ) ;
#76 = LOCAL_TIME ( 15, 21, 37.00000000000000000, #221 ) ;
#77 = EDGE_CURVE ( 'NONE', #187, #119, #19, .T. ) ;
#78 = FACE_OUTER_BOUND ( 'NONE', #237, .T. ) ;
#79 = ORIENTED_EDGE ( 'NONE', *, *, #125, .F. ) ;
#80 = APPROVAL_PERSON_ORGANIZATION ( #84, #23, #210 ) ;
#81 = PLANE ( 'NONE',  #169 ) ;
#82 = LINE ( 'NONE', #104, #16 ) ;
#83 = ORIENTED_EDGE ( 'NONE', *, *, #20, .F. ) ;
#84 = PERSON_AND_ORGANIZATION ( #176, #117 ) ;
#85 = PRODUCT_RELATED_PRODUCT_CATEGORY ( 'detail', '', ( #147 ) ) ;
#86 = DIRECTION ( 'NONE',  ( -0.0000000000000000000, 1.000000000000000000, 1.734723475976807100E-016 ) ) ;
#87 = CARTESIAN_POINT ( 'NONE',  ( 4.750000000000000000, 14.99999999999998200, 15.00000000000000200 ) ) ;
#88 = DIRECTION ( 'NONE',  ( 0.0000000000000000000, -1.000000000000000000, -1.734723475976807100E-016 ) ) ;
#89 = CARTESIAN_POINT ( 'NONE',  ( -4.750000000000000000, 14.99999999999998200, 15.00000000000000200 ) ) ;
#90 = ADVANCED_FACE ( 'NONE', ( #24 ), #62, .T. ) ;
#91 = PERSON_AND_ORGANIZATION_ROLE ( 'design_owner' ) ;
#92 = EDGE_CURVE ( 'NONE', #32, #153, #61, .T. ) ;
#93 =( GEOMETRIC_REPRESENTATION_CONTEXT ( 3 ) GLOBAL_UNCERTAINTY_ASSIGNED_CONTEXT ( ( #141 ) ) GLOBAL_UNIT_ASSIGNED_CONTEXT ( ( #174, #190, #207 ) ) REPRESENTATION_CONTEXT ( 'NONE', 'WORKASPACE' ) );
#94 = LINE ( 'NONE', #140, #42 ) ;
#95 = VERTEX_POINT ( 'NONE', #44 ) ;
#96 = APPROVAL_PERSON_ORGANIZATION ( #178, #214, #109 ) ;
#97 = ORIENTED_EDGE ( 'NONE', *, *, #167, .F. ) ;
#98 = CC_DESIGN_PERSON_AND_ORGANIZATION_ASSIGNMENT ( #134, #91, ( #147 ) ) ;
#99 = CARTESIAN_POINT ( 'NONE',  ( 4.750000000000000000, -15.00000000000000400, 15.00000000000000700 ) ) ;
#100 = ADVANCED_BREP_SHAPE_REPRESENTATION ( 'Web Model 48466_48468', ( #194, #107 ), #93 ) ;
#101 = DESIGN_CONTEXT ( 'detailed design', #69, 'design' ) ;
#102 = CALENDAR_DATE ( 2018, 12, 3 ) ;
#103 = DIRECTION ( 'NONE',  ( 1.000000000000000000, 0.0000000000000000000, 0.0000000000000000000 ) ) ;
#104 = CARTESIAN_POINT ( 'NONE',  ( -4.750000000000000000, 14.99999999999998200, 15.00000000000000200 ) ) ;
#105 = CARTESIAN_POINT ( 'NONE',  ( -4.750000000000000000, 14.99999999999998200, 15.00000000000000200 ) ) ;
#106 = CC_DESIGN_DATE_AND_TIME_ASSIGNMENT ( #116, #49, ( #218 ) ) ;
#107 = AXIS2_PLACEMENT_3D ( 'NONE', #74, #144, #122 ) ;
#108 = EDGE_LOOP ( 'NONE', ( #73, #36, #97, #1 ) ) ;
#109 = APPROVAL_ROLE ( '' ) ;
#110 = APPROVAL_STATUS ( 'not_yet_approved' ) ;
#111 = ORIENTED_EDGE ( 'NONE', *, *, #21, .F. ) ;
#112 = VERTEX_POINT ( 'NONE', #227 ) ;
#113 = LOCAL_TIME ( 15, 21, 37.00000000000000000, #188 ) ;
#114 = VECTOR ( 'NONE', #180, 1000.000000000000000 ) ;
#115 = DIRECTION ( 'NONE',  ( 0.0000000000000000000, -0.0000000000000000000, 1.000000000000000000 ) ) ;
#116 = DATE_AND_TIME ( #47, #76 ) ;
#117 = ORGANIZATION ( 'UNSPECIFIED', 'UNSPECIFIED', '' ) ;
#118 = CARTESIAN_POINT ( 'NONE',  ( 4.750000000000000000, 14.99999999999999600, -15.00000000000000200 ) ) ;
#119 = VERTEX_POINT ( 'NONE', #66 ) ;
#120 = DIRECTION ( 'NONE',  ( -0.0000000000000000000, -4.625929269271485900E-016, 1.000000000000000000 ) ) ;
#121 = ADVANCED_FACE ( 'NONE', ( #236 ), #27, .F. ) ;
#122 = DIRECTION ( 'NONE',  ( 1.000000000000000000, 0.0000000000000000000, 0.0000000000000000000 ) ) ;
#123 = ORIENTED_EDGE ( 'NONE', *, *, #217, .T. ) ;
#124 = APPROVAL_PERSON_ORGANIZATION ( #166, #224, #72 ) ;
#125 = EDGE_CURVE ( 'NONE', #234, #179, #5, .T. ) ;
#126 = EDGE_CURVE ( 'NONE', #119, #112, #94, .T. ) ;
#127 = PERSON_AND_ORGANIZATION ( #176, #117 ) ;
#128 = PRODUCT_DEFINITION_FORMATION_WITH_SPECIFIED_SOURCE ( 'ANY', '', #147, .NOT_KNOWN. ) ;
#129 = EDGE_LOOP ( 'NONE', ( #225, #137, #219, #143 ) ) ;
#130 = LOCAL_TIME ( 15, 21, 37.00000000000000000, #18 ) ;
#131 = VECTOR ( 'NONE', #226, 1000.000000000000000 ) ;
#132 = AXIS2_PLACEMENT_3D ( 'NONE', #203, #103, #133 ) ;
#133 = DIRECTION ( 'NONE',  ( 0.0000000000000000000, 0.0000000000000000000, -1.000000000000000000 ) ) ;
#134 = PERSON_AND_ORGANIZATION ( #176, #117 ) ;
#135 = DIRECTION ( 'NONE',  ( 0.0000000000000000000, 0.0000000000000000000, -1.000000000000000000 ) ) ;
#136 = CARTESIAN_POINT ( 'NONE',  ( 4.750000000000000000, -15.00000000000000400, 15.00000000000000700 ) ) ;
#137 = ORIENTED_EDGE ( 'NONE', *, *, #20, .T. ) ;
#138 = CARTESIAN_POINT ( 'NONE',  ( 4.750000000000000000, 14.99999999999999600, -15.00000000000000200 ) ) ;
#139 = APPROVAL_DATE_TIME ( #56, #23 ) ;
#140 = CARTESIAN_POINT ( 'NONE',  ( -4.750000000000000000, -15.00000000000000400, 15.00000000000000700 ) ) ;
#141 = UNCERTAINTY_MEASURE_WITH_UNIT (LENGTH_MEASURE( 1.000000000000000100E-005 ), #174, 'distance_accuracy_value', 'NONE');
#142 = LINE ( 'NONE', #45, #208 ) ;
#143 = ORIENTED_EDGE ( 'NONE', *, *, #21, .T. ) ;
#144 = DIRECTION ( 'NONE',  ( 0.0000000000000000000, 0.0000000000000000000, 1.000000000000000000 ) ) ;
#145 = EDGE_LOOP ( 'NONE', ( #57, #182, #83, #6 ) ) ;
#146 = ORIENTED_EDGE ( 'NONE', *, *, #77, .T. ) ;
#147 = PRODUCT ( 'Web Model 48466_48468', 'Web Model 48466_48468', '', ( #31 ) ) ;
#148 = DATE_AND_TIME ( #54, #113 ) ;
#149 = AXIS2_PLACEMENT_3D ( 'NONE', #25, #220, #10 ) ;
#150 = CC_DESIGN_SECURITY_CLASSIFICATION ( #37, ( #128 ) ) ;
#151 = LINE ( 'NONE', #155, #30 ) ;
#152 = LINE ( 'NONE', #138, #55 ) ;
#153 = VERTEX_POINT ( 'NONE', #26 ) ;
#154 = DIRECTION ( 'NONE',  ( -1.000000000000000000, -0.0000000000000000000, -0.0000000000000000000 ) ) ;
#155 = CARTESIAN_POINT ( 'NONE',  ( 4.750000000000000000, -15.00000000000000400, 15.00000000000000700 ) ) ;
#156 = LINE ( 'NONE', #48, #228 ) ;
#157 = DATE_AND_TIME ( #200, #130 ) ;
#158 = APPROVAL_STATUS ( 'not_yet_approved' ) ;
#159 = ADVANCED_FACE ( 'NONE', ( #78 ), #64, .F. ) ;
#160 = PLANE ( 'NONE',  #196 ) ;
#161 = CLOSED_SHELL ( 'NONE', ( #121, #14, #159, #185, #90, #232 ) ) ;
#162 = FACE_OUTER_BOUND ( 'NONE', #108, .T. ) ;
#163 = FACE_OUTER_BOUND ( 'NONE', #63, .T. ) ;
#164 = VECTOR ( 'NONE', #86, 1000.000000000000000 ) ;
#165 = ORIENTED_EDGE ( 'NONE', *, *, #50, .T. ) ;
#166 = PERSON_AND_ORGANIZATION ( #176, #117 ) ;
#167 = EDGE_CURVE ( 'NONE', #112, #95, #198, .T. ) ;
#168 = CARTESIAN_POINT ( 'NONE',  ( 4.750000000000000000, 14.99999999999998200, 15.00000000000000200 ) ) ;
#169 = AXIS2_PLACEMENT_3D ( 'NONE', #99, #60, #115 ) ;
#170 = APPLICATION_CONTEXT ( 'configuration controlled 3d designs of mechanical parts and assemblies' ) ;
#171 = ORIENTED_EDGE ( 'NONE', *, *, #217, .F. ) ;
#172 = PERSON_AND_ORGANIZATION_ROLE ( 'classification_officer' ) ;
#173 = LOCAL_TIME ( 15, 21, 37.00000000000000000, #235 ) ;
#174 =( LENGTH_UNIT ( ) NAMED_UNIT ( * ) SI_UNIT ( .MILLI., .METRE. ) );
#175 = CC_DESIGN_APPROVAL ( #214, ( #128 ) ) ;
#176 = PERSON ( 'UNSPECIFIED', 'UNSPECIFIED', 'UNSPECIFIED', ('UNSPECIFIED'), ('UNSPECIFIED'), ('UNSPECIFIED') ) ;
#177 = ORIENTED_EDGE ( 'NONE', *, *, #193, .T. ) ;
#178 = PERSON_AND_ORGANIZATION ( #176, #117 ) ;
#179 = VERTEX_POINT ( 'NONE', #118 ) ;
#180 = DIRECTION ( 'NONE',  ( 0.0000000000000000000, -1.000000000000000000, 1.734723475976808100E-016 ) ) ;
#181 = DIRECTION ( 'NONE',  ( 0.0000000000000000000, -1.734723475976807100E-016, 1.000000000000000000 ) ) ;
#182 = ORIENTED_EDGE ( 'NONE', *, *, #193, .F. ) ;
#183 = DIRECTION ( 'NONE',  ( -1.000000000000000000, -0.0000000000000000000, -0.0000000000000000000 ) ) ;
#184 = CARTESIAN_POINT ( 'NONE',  ( 4.750000000000000000, -15.00000000000000400, -15.00000000000000700 ) ) ;
#185 = ADVANCED_FACE ( 'NONE', ( #163 ), #46, .F. ) ;
#186 = CARTESIAN_POINT ( 'NONE',  ( 4.750000000000000000, 14.99999999999999600, -15.00000000000000200 ) ) ;
#187 = VERTEX_POINT ( 'NONE', #105 ) ;
#188 = COORDINATED_UNIVERSAL_TIME_OFFSET ( 5, 0, .BEHIND. ) ;
#189 = APPLICATION_PROTOCOL_DEFINITION ( 'international standard', 'config_control_design', 1994, #69 ) ;
#190 =( NAMED_UNIT ( * ) PLANE_ANGLE_UNIT ( ) SI_UNIT ( $, .RADIAN. ) );
#191 = ORIENTED_EDGE ( 'NONE', *, *, #59, .F. ) ;
#192 = APPLICATION_PROTOCOL_DEFINITION ( 'international standard', 'config_control_design', 1994, #170 ) ;
#193 = EDGE_CURVE ( 'NONE', #234, #112, #142, .T. ) ;
#194 = MANIFOLD_SOLID_BREP ( 'Boss-Extrude1', #161 ) ;
#195 = ORIENTED_EDGE ( 'NONE', *, *, #92, .F. ) ;
#196 = AXIS2_PLACEMENT_3D ( 'NONE', #15, #52, #209 ) ;
#197 = CALENDAR_DATE ( 2018, 12, 3 ) ;
#198 = LINE ( 'NONE', #8, #164 ) ;
#199 = ORIENTED_EDGE ( 'NONE', *, *, #205, .T. ) ;
#200 = CALENDAR_DATE ( 2018, 12, 3 ) ;
#201 = CC_DESIGN_PERSON_AND_ORGANIZATION_ASSIGNMENT ( #70, #13, ( #128 ) ) ;
#202 = LINE ( 'NONE', #4, #212 ) ;
#203 = CARTESIAN_POINT ( 'NONE',  ( 4.750000000000000000, 0.0000000000000000000, 0.0000000000000000000 ) ) ;
#204 = DIRECTION ( 'NONE',  ( 0.0000000000000000000, -1.000000000000000000, -4.625929269271485900E-016 ) ) ;
#205 = EDGE_CURVE ( 'NONE', #179, #95, #152, .T. ) ;
#206 = DIRECTION ( 'NONE',  ( 0.0000000000000000000, 4.625929269271485900E-016, -1.000000000000000000 ) ) ;
#207 =( NAMED_UNIT ( * ) SI_UNIT ( $, .STERADIAN. ) SOLID_ANGLE_UNIT ( ) );
#208 = VECTOR ( 'NONE', #183, 1000.000000000000000 ) ;
#209 = DIRECTION ( 'NONE',  ( 0.0000000000000000000, 0.0000000000000000000, -1.000000000000000000 ) ) ;
#210 = APPROVAL_ROLE ( '' ) ;
#211 = CC_DESIGN_PERSON_AND_ORGANIZATION_ASSIGNMENT ( #127, #230, ( #128 ) ) ;
#212 = VECTOR ( 'NONE', #2, 1000.000000000000000 ) ;
#213 = PERSON_AND_ORGANIZATION ( #176, #117 ) ;
#214 = APPROVAL ( #110, 'UNSPECIFIED' ) ;
#215 = VECTOR ( 'NONE', #222, 1000.000000000000000 ) ;
#216 = EDGE_LOOP ( 'NONE', ( #146, #191, #195, #123 ) ) ;
#217 = EDGE_CURVE ( 'NONE', #32, #187, #156, .T. ) ;
#218 = PRODUCT_DEFINITION ( 'UNKNOWN', '', #128, #101 ) ;
#219 = ORIENTED_EDGE ( 'NONE', *, *, #125, .T. ) ;
#220 = DIRECTION ( 'NONE',  ( 0.0000000000000000000, -1.734723475976808100E-016, -1.000000000000000000 ) ) ;
#221 = COORDINATED_UNIVERSAL_TIME_OFFSET ( 5, 0, .BEHIND. ) ;
#222 = DIRECTION ( 'NONE',  ( 0.0000000000000000000, -1.000000000000000000, 1.734723475976808100E-016 ) ) ;
#223 = CARTESIAN_POINT ( 'NONE',  ( 4.750000000000000000, 14.99999999999999600, -15.00000000000000200 ) ) ;
#224 = APPROVAL ( #158, 'UNSPECIFIED' ) ;
#225 = ORIENTED_EDGE ( 'NONE', *, *, #92, .T. ) ;
#226 = DIRECTION ( 'NONE',  ( -0.0000000000000000000, 1.000000000000000000, 1.734723475976807100E-016 ) ) ;
#227 = CARTESIAN_POINT ( 'NONE',  ( -4.750000000000000000, -15.00000000000000400, -15.00000000000000700 ) ) ;
#228 = VECTOR ( 'NONE', #17, 1000.000000000000000 ) ;
#229 = CC_DESIGN_APPROVAL ( #224, ( #37 ) ) ;
#230 = PERSON_AND_ORGANIZATION_ROLE ( 'design_supplier' ) ;
#231 = PRODUCT_DEFINITION_SHAPE ( 'NONE', 'NONE',  #218 ) ;
#232 = ADVANCED_FACE ( 'NONE', ( #162 ), #160, .F. ) ;
#233 = CC_DESIGN_PERSON_AND_ORGANIZATION_ASSIGNMENT ( #213, #12, ( #218 ) ) ;
#234 = VERTEX_POINT ( 'NONE', #184 ) ;
#235 = COORDINATED_UNIVERSAL_TIME_OFFSET ( 5, 0, .BEHIND. ) ;
#236 = FACE_OUTER_BOUND ( 'NONE', #216, .T. ) ;
#237 = EDGE_LOOP ( 'NONE', ( #40, #53, #79, #177 ) ) ;
ENDSEC;
END-ISO-10303-21;
