ISO-10303-21;
HEADER;
FILE_DESCRIPTION (( 'STEP AP203' ),
    '1' );
FILE_NAME ('Web Model 68804_68804.step',
    '2017-03-06T17:44:16',
    ( '' ),
    ( '' ),
    'SwSTEP 2.0',
    'SolidWorks 2016',
    '' );
FILE_SCHEMA (( 'CONFIG_CONTROL_DESIGN' ));
ENDSEC;

DATA;
#1 = ADVANCED_BREP_SHAPE_REPRESENTATION ( 'Web Model 68804_68804', ( #64, #158 ), #126 ) ;
#2 = SHAPE_DEFINITION_REPRESENTATION ( #44, #1 ) ;
#3 = CARTESIAN_POINT ( 'NONE',  ( -6.499999999999999100, 0.0000000000000000000, -0.5000000000000000000 ) ) ;
#4 = DATE_TIME_ROLE ( 'classification_date' ) ;
#5 = DIRECTION ( 'NONE',  ( 1.000000000000000000, 0.0000000000000000000, 0.0000000000000000000 ) ) ;
#6 = CIRCLE ( 'NONE', #173, 6.499999999999999100 ) ;
#7 = PRODUCT_DEFINITION ( 'UNKNOWN', '', #55, #135 ) ;
#8 = CALENDAR_DATE ( 2017, 6, 3 ) ;
#9 = DATE_AND_TIME ( #75, #51 ) ;
#10 = DIRECTION ( 'NONE',  ( 1.000000000000000000, 0.0000000000000000000, 0.0000000000000000000 ) ) ;
#11 = ORIENTED_EDGE ( 'NONE', *, *, #87, .T. ) ;
#12 = CALENDAR_DATE ( 2017, 6, 3 ) ;
#13 = CARTESIAN_POINT ( 'NONE',  ( 6.499999999999999100, 7.960204194457794500E-016, 0.5000000000000000000 ) ) ;
#14 = AXIS2_PLACEMENT_3D ( 'NONE', #28, #153, #10 ) ;
#15 = DIRECTION ( 'NONE',  ( -0.0000000000000000000, -0.0000000000000000000, -1.000000000000000000 ) ) ;
#16 = PERSON ( 'UNSPECIFIED', 'UNSPECIFIED', 'UNSPECIFIED', ('UNSPECIFIED'), ('UNSPECIFIED'), ('UNSPECIFIED') ) ;
#17 = APPROVAL ( #134, 'UNSPECIFIED' ) ;
#18 = ORGANIZATION ( 'UNSPECIFIED', 'UNSPECIFIED', '' ) ;
#19 = PERSON_AND_ORGANIZATION_ROLE ( 'design_supplier' ) ;
#20 = CARTESIAN_POINT ( 'NONE',  ( 6.499999999999999100, 7.960204194457794500E-016, 0.5000000000000000000 ) ) ;
#21 = FACE_OUTER_BOUND ( 'NONE', #39, .T. ) ;
#22 = CARTESIAN_POINT ( 'NONE',  ( 0.0000000000000000000, 0.0000000000000000000, 0.0000000000000000000 ) ) ;
#23 = DIRECTION ( 'NONE',  ( 0.0000000000000000000, 0.0000000000000000000, 1.000000000000000000 ) ) ;
#24 = PLANE ( 'NONE',  #117 ) ;
#25 = APPLICATION_CONTEXT ( 'configuration controlled 3d designs of mechanical parts and assemblies' ) ;
#26 = LINE ( 'NONE', #139, #62 ) ;
#27 = AXIS2_PLACEMENT_3D ( 'NONE', #131, #66, #54 ) ;
#28 = CARTESIAN_POINT ( 'NONE',  ( 0.0000000000000000000, 0.0000000000000000000, -0.5000000000000000000 ) ) ;
#29 = CIRCLE ( 'NONE', #108, 6.499999999999999100 ) ;
#30 = CC_DESIGN_APPROVAL ( #17, ( #7 ) ) ;
#31 = VERTEX_POINT ( 'NONE', #143 ) ;
#32 = LOCAL_TIME ( 12, 44, 16.00000000000000000, #56 ) ;
#33 = FACE_OUTER_BOUND ( 'NONE', #128, .T. ) ;
#34 = VERTEX_POINT ( 'NONE', #20 ) ;
#35 = CYLINDRICAL_SURFACE ( 'NONE', #73, 6.499999999999999100 ) ;
#36 = PERSON_AND_ORGANIZATION_ROLE ( 'creator' ) ;
#37 = UNCERTAINTY_MEASURE_WITH_UNIT (LENGTH_MEASURE( 1.000000000000000100E-005 ), #122, 'distance_accuracy_value', 'NONE');
#38 = CARTESIAN_POINT ( 'NONE',  ( 6.499999999999999100, 7.960204194457794500E-016, -0.5000000000000000000 ) ) ;
#39 = EDGE_LOOP ( 'NONE', ( #163, #164, #96, #97 ) ) ;
#40 = CC_DESIGN_PERSON_AND_ORGANIZATION_ASSIGNMENT ( #156, #36, ( #7 ) ) ;
#41 = DATE_AND_TIME ( #8, #133 ) ;
#42 = COORDINATED_UNIVERSAL_TIME_OFFSET ( 5, 0, .BEHIND. ) ;
#43 = EDGE_CURVE ( 'NONE', #174, #142, #91, .T. ) ;
#44 = PRODUCT_DEFINITION_SHAPE ( 'NONE', 'NONE',  #7 ) ;
#45 = DIRECTION ( 'NONE',  ( -1.000000000000000000, 0.0000000000000000000, 0.0000000000000000000 ) ) ;
#46 = ORIENTED_EDGE ( 'NONE', *, *, #92, .F. ) ;
#47 = ADVANCED_FACE ( 'NONE', ( #33 ), #136, .T. ) ;
#48 = CC_DESIGN_DATE_AND_TIME_ASSIGNMENT ( #84, #111, ( #7 ) ) ;
#49 = APPROVAL_ROLE ( '' ) ;
#50 = LOCAL_TIME ( 12, 44, 16.00000000000000000, #42 ) ;
#51 = LOCAL_TIME ( 12, 44, 16.00000000000000000, #115 ) ;
#52 = APPROVAL_DATE_TIME ( #172, #121 ) ;
#53 = DIRECTION ( 'NONE',  ( 0.0000000000000000000, 0.0000000000000000000, 1.000000000000000000 ) ) ;
#54 = DIRECTION ( 'NONE',  ( 1.000000000000000000, 0.0000000000000000000, -0.0000000000000000000 ) ) ;
#55 = PRODUCT_DEFINITION_FORMATION_WITH_SPECIFIED_SOURCE ( 'ANY', '', #175, .NOT_KNOWN. ) ;
#56 = COORDINATED_UNIVERSAL_TIME_OFFSET ( 5, 0, .BEHIND. ) ;
#57 = APPLICATION_PROTOCOL_DEFINITION ( 'international standard', 'config_control_design', 1994, #149 ) ;
#58 = ORIENTED_EDGE ( 'NONE', *, *, #138, .F. ) ;
#59 = APPROVAL_STATUS ( 'not_yet_approved' ) ;
#60 = PERSON_AND_ORGANIZATION ( #16, #18 ) ;
#61 = APPROVAL ( #59, 'UNSPECIFIED' ) ;
#62 = VECTOR ( 'NONE', #93, 1000.000000000000000 ) ;
#63 = AXIS2_PLACEMENT_3D ( 'NONE', #85, #15, #45 ) ;
#64 = MANIFOLD_SOLID_BREP ( 'Boss-Extrude1', #103 ) ;
#65 = ORIENTED_EDGE ( 'NONE', *, *, #87, .F. ) ;
#66 = DIRECTION ( 'NONE',  ( 0.0000000000000000000, 0.0000000000000000000, 1.000000000000000000 ) ) ;
#67 = EDGE_LOOP ( 'NONE', ( #58, #168 ) ) ;
#68 = CC_DESIGN_APPROVAL ( #61, ( #55 ) ) ;
#69 = PERSON_AND_ORGANIZATION ( #16, #18 ) ;
#70 = DIRECTION ( 'NONE',  ( 1.000000000000000000, 0.0000000000000000000, 0.0000000000000000000 ) ) ;
#71 = CARTESIAN_POINT ( 'NONE',  ( 0.0000000000000000000, 0.0000000000000000000, -0.5000000000000000000 ) ) ;
#72 = PERSON_AND_ORGANIZATION_ROLE ( 'design_owner' ) ;
#73 = AXIS2_PLACEMENT_3D ( 'NONE', #167, #170, #76 ) ;
#74 = FACE_OUTER_BOUND ( 'NONE', #113, .T. ) ;
#75 = CALENDAR_DATE ( 2017, 6, 3 ) ;
#76 = DIRECTION ( 'NONE',  ( -1.000000000000000000, 0.0000000000000000000, 0.0000000000000000000 ) ) ;
#77 = DIRECTION ( 'NONE',  ( 1.000000000000000000, 0.0000000000000000000, 0.0000000000000000000 ) ) ;
#78 = CIRCLE ( 'NONE', #82, 6.499999999999999100 ) ;
#79 = PLANE ( 'NONE',  #27 ) ;
#80 = COORDINATED_UNIVERSAL_TIME_OFFSET ( 5, 0, .BEHIND. ) ;
#81 = CC_DESIGN_PERSON_AND_ORGANIZATION_ASSIGNMENT ( #118, #159, ( #55 ) ) ;
#82 = AXIS2_PLACEMENT_3D ( 'NONE', #154, #166, #77 ) ;
#83 = ORIENTED_EDGE ( 'NONE', *, *, #165, .T. ) ;
#84 = DATE_AND_TIME ( #12, #50 ) ;
#85 = CARTESIAN_POINT ( 'NONE',  ( 0.0000000000000000000, 0.0000000000000000000, 0.5000000000000000000 ) ) ;
#86 = APPROVAL_STATUS ( 'not_yet_approved' ) ;
#87 = EDGE_CURVE ( 'NONE', #34, #31, #78, .T. ) ;
#88 = APPLICATION_PROTOCOL_DEFINITION ( 'international standard', 'config_control_design', 1994, #25 ) ;
#89 = CC_DESIGN_PERSON_AND_ORGANIZATION_ASSIGNMENT ( #106, #19, ( #55 ) ) ;
#90 = DATE_AND_TIME ( #127, #120 ) ;
#91 = CIRCLE ( 'NONE', #14, 6.499999999999999100 ) ;
#92 = EDGE_CURVE ( 'NONE', #31, #142, #26, .T. ) ;
#93 = DIRECTION ( 'NONE',  ( -0.0000000000000000000, -0.0000000000000000000, -1.000000000000000000 ) ) ;
#94 = DIRECTION ( 'NONE',  ( -0.0000000000000000000, -0.0000000000000000000, -1.000000000000000000 ) ) ;
#95 = CALENDAR_DATE ( 2017, 6, 3 ) ;
#96 = ORIENTED_EDGE ( 'NONE', *, *, #92, .T. ) ;
#97 = ORIENTED_EDGE ( 'NONE', *, *, #138, .T. ) ;
#98 = ADVANCED_FACE ( 'NONE', ( #21 ), #35, .T. ) ;
#99 = APPROVAL_PERSON_ORGANIZATION ( #60, #121, #161 ) ;
#100 = SECURITY_CLASSIFICATION ( '', '', #146 ) ;
#101 = PERSON_AND_ORGANIZATION_ROLE ( 'classification_officer' ) ;
#102 = DIRECTION ( 'NONE',  ( 0.0000000000000000000, 0.0000000000000000000, 1.000000000000000000 ) ) ;
#103 = CLOSED_SHELL ( 'NONE', ( #47, #98, #107, #157 ) ) ;
#104 = ORIENTED_EDGE ( 'NONE', *, *, #43, .T. ) ;
#105 = CC_DESIGN_PERSON_AND_ORGANIZATION_ASSIGNMENT ( #69, #101, ( #100 ) ) ;
#106 = PERSON_AND_ORGANIZATION ( #16, #18 ) ;
#107 = ADVANCED_FACE ( 'NONE', ( #74 ), #79, .T. ) ;
#108 = AXIS2_PLACEMENT_3D ( 'NONE', #160, #23, #123 ) ;
#109 = ORIENTED_EDGE ( 'NONE', *, *, #132, .T. ) ;
#110 = DIRECTION ( 'NONE',  ( 0.0000000000000000000, 0.0000000000000000000, 1.000000000000000000 ) ) ;
#111 = DATE_TIME_ROLE ( 'creation_date' ) ;
#112 =( NAMED_UNIT ( * ) PLANE_ANGLE_UNIT ( ) SI_UNIT ( $, .RADIAN. ) );
#113 = EDGE_LOOP ( 'NONE', ( #83, #11 ) ) ;
#114 = APPROVAL_PERSON_ORGANIZATION ( #144, #61, #125 ) ;
#115 = COORDINATED_UNIVERSAL_TIME_OFFSET ( 5, 0, .BEHIND. ) ;
#116 = CC_DESIGN_DATE_AND_TIME_ASSIGNMENT ( #90, #4, ( #100 ) ) ;
#117 = AXIS2_PLACEMENT_3D ( 'NONE', #71, #53, #124 ) ;
#118 = PERSON_AND_ORGANIZATION ( #16, #18 ) ;
#119 = PERSON_AND_ORGANIZATION ( #16, #18 ) ;
#120 = LOCAL_TIME ( 12, 44, 16.00000000000000000, #155 ) ;
#121 = APPROVAL ( #86, 'UNSPECIFIED' ) ;
#122 =( LENGTH_UNIT ( ) NAMED_UNIT ( * ) SI_UNIT ( .MILLI., .METRE. ) );
#123 = DIRECTION ( 'NONE',  ( 1.000000000000000000, 0.0000000000000000000, 0.0000000000000000000 ) ) ;
#124 = DIRECTION ( 'NONE',  ( 1.000000000000000000, 0.0000000000000000000, -0.0000000000000000000 ) ) ;
#125 = APPROVAL_ROLE ( '' ) ;
#126 =( GEOMETRIC_REPRESENTATION_CONTEXT ( 3 ) GLOBAL_UNCERTAINTY_ASSIGNED_CONTEXT ( ( #37 ) ) GLOBAL_UNIT_ASSIGNED_CONTEXT ( ( #122, #112, #150 ) ) REPRESENTATION_CONTEXT ( 'NONE', 'WORKASPACE' ) );
#127 = CALENDAR_DATE ( 2017, 6, 3 ) ;
#128 = EDGE_LOOP ( 'NONE', ( #65, #109, #104, #46 ) ) ;
#129 = VECTOR ( 'NONE', #94, 1000.000000000000000 ) ;
#130 = CC_DESIGN_APPROVAL ( #121, ( #100 ) ) ;
#131 = CARTESIAN_POINT ( 'NONE',  ( 0.0000000000000000000, 0.0000000000000000000, 0.5000000000000000000 ) ) ;
#132 = EDGE_CURVE ( 'NONE', #34, #174, #140, .T. ) ;
#133 = LOCAL_TIME ( 12, 44, 16.00000000000000000, #80 ) ;
#134 = APPROVAL_STATUS ( 'not_yet_approved' ) ;
#135 = DESIGN_CONTEXT ( 'detailed design', #149, 'design' ) ;
#136 = CYLINDRICAL_SURFACE ( 'NONE', #63, 6.499999999999999100 ) ;
#137 = CC_DESIGN_SECURITY_CLASSIFICATION ( #100, ( #55 ) ) ;
#138 = EDGE_CURVE ( 'NONE', #142, #174, #6, .T. ) ;
#139 = CARTESIAN_POINT ( 'NONE',  ( -6.499999999999999100, 0.0000000000000000000, 0.5000000000000000000 ) ) ;
#140 = LINE ( 'NONE', #13, #129 ) ;
#141 = FACE_OUTER_BOUND ( 'NONE', #67, .T. ) ;
#142 = VERTEX_POINT ( 'NONE', #3 ) ;
#143 = CARTESIAN_POINT ( 'NONE',  ( -6.499999999999999100, 0.0000000000000000000, 0.5000000000000000000 ) ) ;
#144 = PERSON_AND_ORGANIZATION ( #16, #18 ) ;
#145 = PERSON_AND_ORGANIZATION ( #16, #18 ) ;
#146 = SECURITY_CLASSIFICATION_LEVEL ( 'unclassified' ) ;
#147 = PRODUCT_RELATED_PRODUCT_CATEGORY ( 'detail', '', ( #175 ) ) ;
#148 = CARTESIAN_POINT ( 'NONE',  ( 0.0000000000000000000, 0.0000000000000000000, -0.5000000000000000000 ) ) ;
#149 = APPLICATION_CONTEXT ( 'configuration controlled 3d designs of mechanical parts and assemblies' ) ;
#150 =( NAMED_UNIT ( * ) SI_UNIT ( $, .STERADIAN. ) SOLID_ANGLE_UNIT ( ) );
#151 = APPROVAL_DATE_TIME ( #9, #17 ) ;
#152 = APPROVAL_PERSON_ORGANIZATION ( #119, #17, #49 ) ;
#153 = DIRECTION ( 'NONE',  ( 0.0000000000000000000, 0.0000000000000000000, 1.000000000000000000 ) ) ;
#154 = CARTESIAN_POINT ( 'NONE',  ( 0.0000000000000000000, 0.0000000000000000000, 0.5000000000000000000 ) ) ;
#155 = COORDINATED_UNIVERSAL_TIME_OFFSET ( 5, 0, .BEHIND. ) ;
#156 = PERSON_AND_ORGANIZATION ( #16, #18 ) ;
#157 = ADVANCED_FACE ( 'NONE', ( #141 ), #24, .F. ) ;
#158 = AXIS2_PLACEMENT_3D ( 'NONE', #22, #102, #5 ) ;
#159 = PERSON_AND_ORGANIZATION_ROLE ( 'creator' ) ;
#160 = CARTESIAN_POINT ( 'NONE',  ( 0.0000000000000000000, 0.0000000000000000000, 0.5000000000000000000 ) ) ;
#161 = APPROVAL_ROLE ( '' ) ;
#162 = MECHANICAL_CONTEXT ( 'NONE', #25, 'mechanical' ) ;
#163 = ORIENTED_EDGE ( 'NONE', *, *, #132, .F. ) ;
#164 = ORIENTED_EDGE ( 'NONE', *, *, #165, .F. ) ;
#165 = EDGE_CURVE ( 'NONE', #31, #34, #29, .T. ) ;
#166 = DIRECTION ( 'NONE',  ( 0.0000000000000000000, 0.0000000000000000000, 1.000000000000000000 ) ) ;
#167 = CARTESIAN_POINT ( 'NONE',  ( 0.0000000000000000000, 0.0000000000000000000, 0.5000000000000000000 ) ) ;
#168 = ORIENTED_EDGE ( 'NONE', *, *, #43, .F. ) ;
#169 = CC_DESIGN_PERSON_AND_ORGANIZATION_ASSIGNMENT ( #145, #72, ( #175 ) ) ;
#170 = DIRECTION ( 'NONE',  ( -0.0000000000000000000, -0.0000000000000000000, -1.000000000000000000 ) ) ;
#171 = APPROVAL_DATE_TIME ( #41, #61 ) ;
#172 = DATE_AND_TIME ( #95, #32 ) ;
#173 = AXIS2_PLACEMENT_3D ( 'NONE', #148, #110, #70 ) ;
#174 = VERTEX_POINT ( 'NONE', #38 ) ;
#175 = PRODUCT ( 'Web Model 68804_68804', 'Web Model 68804_68804', '', ( #162 ) ) ;
ENDSEC;
END-ISO-10303-21;
