ISO-10303-21;
HEADER;
FILE_DESCRIPTION (( 'STEP AP203' ),
    '1' );
FILE_NAME ('Web Model 43365_16000.step',
    '2020-10-21T18:17:41',
    ( '' ),
    ( '' ),
    'SwSTEP 2.0',
    'SolidWorks 2018',
    '' );
FILE_SCHEMA (( 'CONFIG_CONTROL_DESIGN' ));
ENDSEC;

DATA;
#1 = PERSON_AND_ORGANIZATION_ROLE ( 'classification_officer' ) ;
#2 = PERSON_AND_ORGANIZATION ( #54, #44 ) ;
#3 = LINE ( 'NONE', #153, #103 ) ;
#4 = DIRECTION ( 'NONE',  ( 1.000000000000000000, 0.0000000000000000000, -0.0000000000000000000 ) ) ;
#5 = PERSON_AND_ORGANIZATION ( #54, #44 ) ;
#6 = PERSON_AND_ORGANIZATION ( #54, #44 ) ;
#7 = ORIENTED_EDGE ( 'NONE', *, *, #158, .F. ) ;
#8 = DESIGN_CONTEXT ( 'detailed design', #49, 'design' ) ;
#9 = DIRECTION ( 'NONE',  ( -0.0000000000000000000, -0.0000000000000000000, -1.000000000000000000 ) ) ;
#10 = CARTESIAN_POINT ( 'NONE',  ( -2.499999999999999556, 0.0000000000000000000, 1.000000000000000000 ) ) ;
#11 = DIRECTION ( 'NONE',  ( 1.000000000000000000, 0.0000000000000000000, -0.0000000000000000000 ) ) ;
#12 = DIRECTION ( 'NONE',  ( -1.000000000000000000, 0.0000000000000000000, 0.0000000000000000000 ) ) ;
#13 = APPLICATION_PROTOCOL_DEFINITION ( 'international standard', 'config_control_design', 1994, #74 ) ;
#14 = SHAPE_DEFINITION_REPRESENTATION ( #107, #58 ) ;
#15 = ORIENTED_EDGE ( 'NONE', *, *, #56, .F. ) ;
#16 = CYLINDRICAL_SURFACE ( 'NONE', #100, 2.499999999999999556 ) ;
#17 = DATE_TIME_ROLE ( 'creation_date' ) ;
#18 = FACE_OUTER_BOUND ( 'NONE', #57, .T. ) ;
#19 = LOCAL_TIME ( 14, 17, 41.00000000000000000, #143 ) ;
#20 = EDGE_LOOP ( 'NONE', ( #137, #28 ) ) ;
#21 = CALENDAR_DATE ( 2020, 21, 10 ) ;
#22 = CYLINDRICAL_SURFACE ( 'NONE', #118, 2.499999999999999556 ) ;
#23 = APPROVAL_PERSON_ORGANIZATION ( #5, #167, #166 ) ;
#24 = ORIENTED_EDGE ( 'NONE', *, *, #62, .F. ) ;
#25 = DIRECTION ( 'NONE',  ( 1.000000000000000000, 0.0000000000000000000, 0.0000000000000000000 ) ) ;
#26 =( NAMED_UNIT ( * ) PLANE_ANGLE_UNIT ( ) SI_UNIT ( $, .RADIAN. ) );
#27 = CARTESIAN_POINT ( 'NONE',  ( -2.499999999999999556, 0.0000000000000000000, 1.000000000000000000 ) ) ;
#28 = ORIENTED_EDGE ( 'NONE', *, *, #56, .T. ) ;
#29 = PERSON_AND_ORGANIZATION_ROLE ( 'design_owner' ) ;
#30 = ADVANCED_FACE ( 'NONE', ( #32 ), #55, .T. ) ;
#31 = PERSON_AND_ORGANIZATION_ROLE ( 'design_supplier' ) ;
#32 = FACE_OUTER_BOUND ( 'NONE', #20, .T. ) ;
#33 = FACE_OUTER_BOUND ( 'NONE', #82, .T. ) ;
#34 = CALENDAR_DATE ( 2020, 21, 10 ) ;
#35 = LINE ( 'NONE', #10, #151 ) ;
#36 = APPROVAL ( #96, 'UNSPECIFIED' ) ;
#37 = DIRECTION ( 'NONE',  ( -1.000000000000000000, 0.0000000000000000000, 0.0000000000000000000 ) ) ;
#38 = DIRECTION ( 'NONE',  ( -0.0000000000000000000, -0.0000000000000000000, -1.000000000000000000 ) ) ;
#39 = DIRECTION ( 'NONE',  ( 0.0000000000000000000, 0.0000000000000000000, 1.000000000000000000 ) ) ;
#40 = CALENDAR_DATE ( 2020, 21, 10 ) ;
#41 = PERSON_AND_ORGANIZATION_ROLE ( 'creator' ) ;
#42 = CC_DESIGN_PERSON_AND_ORGANIZATION_ASSIGNMENT ( #2, #41, ( #156 ) ) ;
#43 = CC_DESIGN_PERSON_AND_ORGANIZATION_ASSIGNMENT ( #120, #119, ( #52 ) ) ;
#44 = ORGANIZATION ( 'UNSPECIFIED', 'UNSPECIFIED', '' ) ;
#45 = ORIENTED_EDGE ( 'NONE', *, *, #75, .F. ) ;
#46 = CARTESIAN_POINT ( 'NONE',  ( 0.0000000000000000000, 0.0000000000000000000, 1.000000000000000000 ) ) ;
#47 = PERSON_AND_ORGANIZATION ( #54, #44 ) ;
#48 = DIRECTION ( 'NONE',  ( 0.0000000000000000000, 0.0000000000000000000, 1.000000000000000000 ) ) ;
#49 = APPLICATION_CONTEXT ( 'configuration controlled 3d designs of mechanical parts and assemblies' ) ;
#50 = COORDINATED_UNIVERSAL_TIME_OFFSET ( 5, 0, .BEHIND. ) ;
#51 = CIRCLE ( 'NONE', #79, 2.499999999999999556 ) ;
#52 = PRODUCT_DEFINITION ( 'UNKNOWN', '', #156, #8 ) ;
#53 = ORIENTED_EDGE ( 'NONE', *, *, #106, .F. ) ;
#54 = PERSON ( 'UNSPECIFIED', 'UNSPECIFIED', 'UNSPECIFIED', ('UNSPECIFIED'), ('UNSPECIFIED'), ('UNSPECIFIED') ) ;
#55 = PLANE ( 'NONE',  #67 ) ;
#56 = EDGE_CURVE ( 'NONE', #112, #157, #123, .T. ) ;
#57 = EDGE_LOOP ( 'NONE', ( #24, #53 ) ) ;
#58 = ADVANCED_BREP_SHAPE_REPRESENTATION ( 'Web Model 43365_16000', ( #113, #63 ), #129 ) ;
#59 = CARTESIAN_POINT ( 'NONE',  ( 2.499999999999999556, 3.061616997868382648E-16, 0.0000000000000000000 ) ) ;
#60 =( NAMED_UNIT ( * ) SI_UNIT ( $, .STERADIAN. ) SOLID_ANGLE_UNIT ( ) );
#61 = MECHANICAL_CONTEXT ( 'NONE', #74, 'mechanical' ) ;
#62 = EDGE_CURVE ( 'NONE', #128, #116, #69, .T. ) ;
#63 = AXIS2_PLACEMENT_3D ( 'NONE', #105, #117, #144 ) ;
#64 = PERSON_AND_ORGANIZATION ( #54, #44 ) ;
#65 = PRODUCT ( 'Web Model 43365_16000', 'Web Model 43365_16000', '', ( #61 ) ) ;
#66 = CC_DESIGN_APPROVAL ( #167, ( #156 ) ) ;
#67 = AXIS2_PLACEMENT_3D ( 'NONE', #84, #125, #4 ) ;
#68 = LOCAL_TIME ( 14, 17, 41.00000000000000000, #101 ) ;
#69 = CIRCLE ( 'NONE', #92, 2.499999999999999556 ) ;
#70 = CARTESIAN_POINT ( 'NONE',  ( 0.0000000000000000000, 0.0000000000000000000, 0.0000000000000000000 ) ) ;
#71 = APPROVAL_PERSON_ORGANIZATION ( #64, #36, #146 ) ;
#72 =( LENGTH_UNIT ( ) NAMED_UNIT ( * ) SI_UNIT ( .MILLI., .METRE. ) );
#73 = DIRECTION ( 'NONE',  ( 1.000000000000000000, 0.0000000000000000000, 0.0000000000000000000 ) ) ;
#74 = APPLICATION_CONTEXT ( 'configuration controlled 3d designs of mechanical parts and assemblies' ) ;
#75 = EDGE_CURVE ( 'NONE', #157, #128, #35, .T. ) ;
#76 = APPROVAL_DATE_TIME ( #127, #36 ) ;
#77 = ORIENTED_EDGE ( 'NONE', *, *, #62, .T. ) ;
#78 = DATE_TIME_ROLE ( 'classification_date' ) ;
#79 = AXIS2_PLACEMENT_3D ( 'NONE', #171, #39, #131 ) ;
#80 = DATE_AND_TIME ( #21, #115 ) ;
#81 = APPROVAL_DATE_TIME ( #80, #140 ) ;
#82 = EDGE_LOOP ( 'NONE', ( #15, #87, #111, #45 ) ) ;
#83 = EDGE_CURVE ( 'NONE', #112, #116, #3, .T. ) ;
#84 = CARTESIAN_POINT ( 'NONE',  ( 0.0000000000000000000, 0.0000000000000000000, 1.000000000000000000 ) ) ;
#85 = UNCERTAINTY_MEASURE_WITH_UNIT (LENGTH_MEASURE( 1.000000000000000082E-05 ), #72, 'distance_accuracy_value', 'NONE');
#86 = DATE_AND_TIME ( #152, #134 ) ;
#87 = ORIENTED_EDGE ( 'NONE', *, *, #83, .T. ) ;
#88 = CC_DESIGN_APPROVAL ( #36, ( #52 ) ) ;
#89 = APPROVAL_PERSON_ORGANIZATION ( #155, #140, #94 ) ;
#90 = AXIS2_PLACEMENT_3D ( 'NONE', #70, #91, #11 ) ;
#91 = DIRECTION ( 'NONE',  ( 0.0000000000000000000, 0.0000000000000000000, 1.000000000000000000 ) ) ;
#92 = AXIS2_PLACEMENT_3D ( 'NONE', #160, #142, #73 ) ;
#93 = DATE_AND_TIME ( #147, #68 ) ;
#94 = APPROVAL_ROLE ( '' ) ;
#95 = AXIS2_PLACEMENT_3D ( 'NONE', #141, #48, #174 ) ;
#96 = APPROVAL_STATUS ( 'not_yet_approved' ) ;
#97 = APPROVAL_STATUS ( 'not_yet_approved' ) ;
#98 = CC_DESIGN_PERSON_AND_ORGANIZATION_ASSIGNMENT ( #6, #31, ( #156 ) ) ;
#99 = ORIENTED_EDGE ( 'NONE', *, *, #83, .F. ) ;
#100 = AXIS2_PLACEMENT_3D ( 'NONE', #114, #9, #12 ) ;
#101 = COORDINATED_UNIVERSAL_TIME_OFFSET ( 5, 0, .BEHIND. ) ;
#102 = CARTESIAN_POINT ( 'NONE',  ( -2.499999999999999556, 0.0000000000000000000, 0.0000000000000000000 ) ) ;
#103 = VECTOR ( 'NONE', #169, 1000.000000000000000 ) ;
#104 = ADVANCED_FACE ( 'NONE', ( #33 ), #16, .T. ) ;
#105 = CARTESIAN_POINT ( 'NONE',  ( 0.0000000000000000000, 0.0000000000000000000, 0.0000000000000000000 ) ) ;
#106 = EDGE_CURVE ( 'NONE', #116, #128, #51, .T. ) ;
#107 = PRODUCT_DEFINITION_SHAPE ( 'NONE', 'NONE',  #52 ) ;
#108 = SECURITY_CLASSIFICATION_LEVEL ( 'unclassified' ) ;
#109 = APPROVAL_STATUS ( 'not_yet_approved' ) ;
#110 = CC_DESIGN_PERSON_AND_ORGANIZATION_ASSIGNMENT ( #165, #29, ( #65 ) ) ;
#111 = ORIENTED_EDGE ( 'NONE', *, *, #106, .T. ) ;
#112 = VERTEX_POINT ( 'NONE', #136 ) ;
#113 = MANIFOLD_SOLID_BREP ( 'Boss-Extrude1', #164 ) ;
#114 = CARTESIAN_POINT ( 'NONE',  ( 0.0000000000000000000, 0.0000000000000000000, 1.000000000000000000 ) ) ;
#115 = LOCAL_TIME ( 14, 17, 41.00000000000000000, #50 ) ;
#116 = VERTEX_POINT ( 'NONE', #59 ) ;
#117 = DIRECTION ( 'NONE',  ( 0.0000000000000000000, 0.0000000000000000000, 1.000000000000000000 ) ) ;
#118 = AXIS2_PLACEMENT_3D ( 'NONE', #46, #133, #37 ) ;
#119 = PERSON_AND_ORGANIZATION_ROLE ( 'creator' ) ;
#120 = PERSON_AND_ORGANIZATION ( #54, #44 ) ;
#121 = LOCAL_TIME ( 14, 17, 41.00000000000000000, #149 ) ;
#122 = AXIS2_PLACEMENT_3D ( 'NONE', #126, #154, #25 ) ;
#123 = CIRCLE ( 'NONE', #122, 2.499999999999999556 ) ;
#124 = DATE_AND_TIME ( #40, #19 ) ;
#125 = DIRECTION ( 'NONE',  ( 0.0000000000000000000, 0.0000000000000000000, 1.000000000000000000 ) ) ;
#126 = CARTESIAN_POINT ( 'NONE',  ( 0.0000000000000000000, 0.0000000000000000000, 1.000000000000000000 ) ) ;
#127 = DATE_AND_TIME ( #34, #121 ) ;
#128 = VERTEX_POINT ( 'NONE', #102 ) ;
#129 =( GEOMETRIC_REPRESENTATION_CONTEXT ( 3 ) GLOBAL_UNCERTAINTY_ASSIGNED_CONTEXT ( ( #85 ) ) GLOBAL_UNIT_ASSIGNED_CONTEXT ( ( #72, #26, #60 ) ) REPRESENTATION_CONTEXT ( 'NONE', 'WORKASPACE' ) );
#130 = FACE_OUTER_BOUND ( 'NONE', #135, .T. ) ;
#131 = DIRECTION ( 'NONE',  ( 1.000000000000000000, 0.0000000000000000000, 0.0000000000000000000 ) ) ;
#132 = CC_DESIGN_DATE_AND_TIME_ASSIGNMENT ( #93, #17, ( #52 ) ) ;
#133 = DIRECTION ( 'NONE',  ( -0.0000000000000000000, -0.0000000000000000000, -1.000000000000000000 ) ) ;
#134 = LOCAL_TIME ( 14, 17, 41.00000000000000000, #162 ) ;
#135 = EDGE_LOOP ( 'NONE', ( #99, #7, #145, #77 ) ) ;
#136 = CARTESIAN_POINT ( 'NONE',  ( 2.499999999999999556, 3.061616997868382648E-16, 1.000000000000000000 ) ) ;
#137 = ORIENTED_EDGE ( 'NONE', *, *, #158, .T. ) ;
#138 = CC_DESIGN_PERSON_AND_ORGANIZATION_ASSIGNMENT ( #47, #1, ( #170 ) ) ;
#139 = APPROVAL_DATE_TIME ( #86, #167 ) ;
#140 = APPROVAL ( #97, 'UNSPECIFIED' ) ;
#141 = CARTESIAN_POINT ( 'NONE',  ( 0.0000000000000000000, 0.0000000000000000000, 1.000000000000000000 ) ) ;
#142 = DIRECTION ( 'NONE',  ( 0.0000000000000000000, 0.0000000000000000000, 1.000000000000000000 ) ) ;
#143 = COORDINATED_UNIVERSAL_TIME_OFFSET ( 5, 0, .BEHIND. ) ;
#144 = DIRECTION ( 'NONE',  ( 1.000000000000000000, 0.0000000000000000000, 0.0000000000000000000 ) ) ;
#145 = ORIENTED_EDGE ( 'NONE', *, *, #75, .T. ) ;
#146 = APPROVAL_ROLE ( '' ) ;
#147 = CALENDAR_DATE ( 2020, 21, 10 ) ;
#148 = CC_DESIGN_DATE_AND_TIME_ASSIGNMENT ( #124, #78, ( #170 ) ) ;
#149 = COORDINATED_UNIVERSAL_TIME_OFFSET ( 5, 0, .BEHIND. ) ;
#150 = CIRCLE ( 'NONE', #95, 2.499999999999999556 ) ;
#151 = VECTOR ( 'NONE', #38, 1000.000000000000000 ) ;
#152 = CALENDAR_DATE ( 2020, 21, 10 ) ;
#153 = CARTESIAN_POINT ( 'NONE',  ( 2.499999999999999556, 3.061616997868382648E-16, 1.000000000000000000 ) ) ;
#154 = DIRECTION ( 'NONE',  ( 0.0000000000000000000, 0.0000000000000000000, 1.000000000000000000 ) ) ;
#155 = PERSON_AND_ORGANIZATION ( #54, #44 ) ;
#156 = PRODUCT_DEFINITION_FORMATION_WITH_SPECIFIED_SOURCE ( 'ANY', '', #65, .NOT_KNOWN. ) ;
#157 = VERTEX_POINT ( 'NONE', #27 ) ;
#158 = EDGE_CURVE ( 'NONE', #157, #112, #150, .T. ) ;
#159 = PLANE ( 'NONE',  #90 ) ;
#160 = CARTESIAN_POINT ( 'NONE',  ( 0.0000000000000000000, 0.0000000000000000000, 0.0000000000000000000 ) ) ;
#161 = ADVANCED_FACE ( 'NONE', ( #130 ), #22, .T. ) ;
#162 = COORDINATED_UNIVERSAL_TIME_OFFSET ( 5, 0, .BEHIND. ) ;
#163 = CC_DESIGN_SECURITY_CLASSIFICATION ( #170, ( #156 ) ) ;
#164 = CLOSED_SHELL ( 'NONE', ( #104, #161, #30, #173 ) ) ;
#165 = PERSON_AND_ORGANIZATION ( #54, #44 ) ;
#166 = APPROVAL_ROLE ( '' ) ;
#167 = APPROVAL ( #109, 'UNSPECIFIED' ) ;
#168 = CC_DESIGN_APPROVAL ( #140, ( #170 ) ) ;
#169 = DIRECTION ( 'NONE',  ( -0.0000000000000000000, -0.0000000000000000000, -1.000000000000000000 ) ) ;
#170 = SECURITY_CLASSIFICATION ( '', '', #108 ) ;
#171 = CARTESIAN_POINT ( 'NONE',  ( 0.0000000000000000000, 0.0000000000000000000, 0.0000000000000000000 ) ) ;
#172 = PRODUCT_RELATED_PRODUCT_CATEGORY ( 'detail', '', ( #65 ) ) ;
#173 = ADVANCED_FACE ( 'NONE', ( #18 ), #159, .F. ) ;
#174 = DIRECTION ( 'NONE',  ( 1.000000000000000000, 0.0000000000000000000, 0.0000000000000000000 ) ) ;
#175 = APPLICATION_PROTOCOL_DEFINITION ( 'international standard', 'config_control_design', 1994, #49 ) ;
ENDSEC;
END-ISO-10303-21;
