ISO-10303-21;
HEADER;
FILE_DESCRIPTION (( 'STEP AP203' ),
    '1' );
FILE_NAME ('20192-E0W.STEP',
    '2009-09-14T20:51:18',
    ( 'Admin' ),
    ( 'Thorlabs, Inc.' ),
    'SwSTEP 2.0',
    'SolidWorks 2007',
    '' );
FILE_SCHEMA (( 'CONFIG_CONTROL_DESIGN' ));
ENDSEC;

DATA;
#1 = ORIENTED_EDGE ( 'NONE', *, *, #23, .T. ) ;
#2 = CLOSED_SHELL ( 'NONE', ( #4, #22, #26, #39, #42 ) ) ;
#3 = ORIENTED_EDGE ( 'NONE', *, *, #33, .F. ) ;
#4 = ADVANCED_FACE ( 'NONE', ( #90 ), #119, .T. ) ;
#5 = MANIFOLD_SOLID_BREP ( 'NONE', #2 ) ;
#6 = ORIENTED_EDGE ( 'NONE', *, *, #11, .T. ) ;
#7 = VERTEX_POINT ( 'NONE', #115 ) ;
#8 = ORIENTED_EDGE ( 'NONE', *, *, #21, .T. ) ;
#9 = EDGE_LOOP ( 'NONE', ( #6, #8, #19, #24 ) ) ;
#10 = VERTEX_POINT ( 'NONE', #104 ) ;
#11 = EDGE_CURVE ( 'NONE', #7, #10, #103, .T. ) ;
#12 = CC_DESIGN_APPROVAL ( #182, ( #185 ) ) ;
#13 = CC_DESIGN_PERSON_AND_ORGANIZATION_ASSIGNMENT ( #79, #93, ( #185 ) ) ;
#14 =( GEOMETRIC_REPRESENTATION_CONTEXT ( 3 ) GLOBAL_UNCERTAINTY_ASSIGNED_CONTEXT ( ( #15 ) ) GLOBAL_UNIT_ASSIGNED_CONTEXT ( ( #57, #95, #94 ) ) REPRESENTATION_CONTEXT ( 'NONE', 'WORKASPACE' ) );
#15 = UNCERTAINTY_MEASURE_WITH_UNIT (LENGTH_MEASURE( 1.000000000000000100E-005 ), #57, 'distance_accuracy_value', 'NONE');
#16 = ADVANCED_BREP_SHAPE_REPRESENTATION ( '20192-E0W', ( #5, #133 ), #14 ) ;
#17 = VERTEX_POINT ( 'NONE', #108 ) ;
#18 = VERTEX_POINT ( 'NONE', #69 ) ;
#19 = ORIENTED_EDGE ( 'NONE', *, *, #45, .F. ) ;
#20 = EDGE_LOOP ( 'NONE', ( #30, #34, #27 ) ) ;
#21 = EDGE_CURVE ( 'NONE', #10, #18, #55, .T. ) ;
#22 = ADVANCED_FACE ( 'NONE', ( #74 ), #112, .T. ) ;
#23 = EDGE_CURVE ( 'NONE', #7, #29, #109, .T. ) ;
#24 = ORIENTED_EDGE ( 'NONE', *, *, #23, .F. ) ;
#25 = EDGE_CURVE ( 'NONE', #17, #10, #62, .T. ) ;
#26 = ADVANCED_FACE ( 'NONE', ( #64 ), #51, .T. ) ;
#27 = ORIENTED_EDGE ( 'NONE', *, *, #11, .F. ) ;
#28 = ORIENTED_EDGE ( 'NONE', *, *, #33, .T. ) ;
#29 = VERTEX_POINT ( 'NONE', #80 ) ;
#30 = ORIENTED_EDGE ( 'NONE', *, *, #46, .F. ) ;
#31 = ORIENTED_EDGE ( 'NONE', *, *, #38, .F. ) ;
#32 = ORIENTED_EDGE ( 'NONE', *, *, #46, .T. ) ;
#33 = EDGE_CURVE ( 'NONE', #18, #29, #56, .T. ) ;
#34 = ORIENTED_EDGE ( 'NONE', *, *, #25, .T. ) ;
#35 = EDGE_LOOP ( 'NONE', ( #37, #36, #1, #3 ) ) ;
#36 = ORIENTED_EDGE ( 'NONE', *, *, #38, .T. ) ;
#37 = ORIENTED_EDGE ( 'NONE', *, *, #21, .F. ) ;
#38 = EDGE_CURVE ( 'NONE', #10, #7, #100, .T. ) ;
#39 = ADVANCED_FACE ( 'NONE', ( #101 ), #110, .T. ) ;
#40 = EDGE_LOOP ( 'NONE', ( #41, #32, #31 ) ) ;
#41 = ORIENTED_EDGE ( 'NONE', *, *, #25, .F. ) ;
#42 = ADVANCED_FACE ( 'NONE', ( #68 ), #59, .T. ) ;
#43 = ORIENTED_EDGE ( 'NONE', *, *, #45, .T. ) ;
#44 = EDGE_LOOP ( 'NONE', ( #43, #28 ) ) ;
#45 = EDGE_CURVE ( 'NONE', #29, #18, #86, .T. ) ;
#46 = EDGE_CURVE ( 'NONE', #17, #7, #78, .T. ) ;
#47 = CARTESIAN_POINT ( 'NONE',  ( 0.0000000000000000000, 3.796279696849369800E-016, -1.030000000000000000 ) ) ;
#48 = DIRECTION ( 'NONE',  ( 0.0000000000000000000, 3.061515884555943100E-016, -1.000000000000000000 ) ) ;
#49 = VECTOR ( 'NONE', #48, 1000.000000000000000 ) ;
#50 = AXIS2_PLACEMENT_3D ( 'NONE', #122, #121, #120 ) ;
#51 = PLANE ( 'NONE',  #50 ) ;
#52 = CARTESIAN_POINT ( 'NONE',  ( 0.0000000000000000000, 3.796279696849381600E-016, -1.030000000000004000 ) ) ;
#53 = AXIS2_PLACEMENT_3D ( 'NONE', #52, #73, #72 ) ;
#54 = CARTESIAN_POINT ( 'NONE',  ( 1.555250069354419300E-015, -12.70000000000000100, -1.030000000000004000 ) ) ;
#55 = LINE ( 'NONE', #54, #49 ) ;
#56 = CIRCLE ( 'NONE', #84, 12.69999999999999900 ) ;
#57 =( LENGTH_UNIT ( ) NAMED_UNIT ( * ) SI_UNIT ( .MILLI., .METRE. ) );
#58 = DIRECTION ( 'NONE',  ( 0.0000000000000000000, 0.0000000000000000000, 1.000000000000000000 ) ) ;
#59 = CYLINDRICAL_SURFACE ( 'NONE', #60, 12.70000000000000100 ) ;
#60 = AXIS2_PLACEMENT_3D ( 'NONE', #89, #88, #87 ) ;
#61 = AXIS2_PLACEMENT_3D ( 'NONE', #63, #114, #113 ) ;
#62 = CIRCLE ( 'NONE', #61, 1402.662000000000300 ) ;
#63 = CARTESIAN_POINT ( 'NONE',  ( 0.0000000000000000000, 1.715198354439867400E-013, -1401.632000000000300 ) ) ;
#64 = FACE_OUTER_BOUND ( 'NONE', #44, .T. ) ;
#65 = DIRECTION ( 'NONE',  ( 0.0000000000000000000, 1.000000000000000000, 3.166045774748745500E-016 ) ) ;
#66 = DIRECTION ( 'NONE',  ( 1.000000000000000000, 0.0000000000000000000, 0.0000000000000000000 ) ) ;
#67 = CARTESIAN_POINT ( 'NONE',  ( 0.0000000000000000000, 1.715198354439867400E-013, -1401.632000000000300 ) ) ;
#68 = FACE_OUTER_BOUND ( 'NONE', #35, .T. ) ;
#69 = CARTESIAN_POINT ( 'NONE',  ( 1.555250069354419300E-015, -12.69999999999999900, -1.030000000000007800 ) ) ;
#70 = AXIS2_PLACEMENT_3D ( 'NONE', #47, #71, #91 ) ;
#71 = DIRECTION ( 'NONE',  ( 0.0000000000000000000, 3.061515884555943100E-016, -1.000000000000000000 ) ) ;
#72 = DIRECTION ( 'NONE',  ( 0.0000000000000000000, 1.000000000000000000, 3.073328992872296400E-016 ) ) ;
#73 = DIRECTION ( 'NONE',  ( 0.0000000000000000000, 3.061515884555943100E-016, -1.000000000000000000 ) ) ;
#74 = FACE_OUTER_BOUND ( 'NONE', #20, .T. ) ;
#75 = DIRECTION ( 'NONE',  ( -1.000000000000000000, 0.0000000000000000000, 0.0000000000000000000 ) ) ;
#76 = CARTESIAN_POINT ( 'NONE',  ( 0.0000000000000000000, 1.715198354439867400E-013, -1401.632000000000300 ) ) ;
#77 = AXIS2_PLACEMENT_3D ( 'NONE', #76, #75, #58 ) ;
#78 = CIRCLE ( 'NONE', #77, 1402.662000000000300 ) ;
#79 = PERSON_AND_ORGANIZATION ( #197, #196 ) ;
#80 = CARTESIAN_POINT ( 'NONE',  ( 0.0000000000000000000, 12.69999999999999900, -1.030000000000000000 ) ) ;
#81 = DIRECTION ( 'NONE',  ( 0.0000000000000000000, 1.000000000000000000, 3.073328992872296400E-016 ) ) ;
#82 = DIRECTION ( 'NONE',  ( 0.0000000000000000000, 3.061515884555943100E-016, -1.000000000000000000 ) ) ;
#83 = CARTESIAN_POINT ( 'NONE',  ( 0.0000000000000000000, 3.796279696849381600E-016, -1.030000000000004000 ) ) ;
#84 = AXIS2_PLACEMENT_3D ( 'NONE', #83, #82, #81 ) ;
#85 = DIRECTION ( 'NONE',  ( 0.0000000000000000000, 1.000000000000000000, 3.073328992872295400E-016 ) ) ;
#86 = CIRCLE ( 'NONE', #53, 12.69999999999999900 ) ;
#87 = DIRECTION ( 'NONE',  ( 0.0000000000000000000, 1.000000000000000000, 3.073328992872295900E-016 ) ) ;
#88 = DIRECTION ( 'NONE',  ( 0.0000000000000000000, 3.061515884555943100E-016, -1.000000000000000000 ) ) ;
#89 = CARTESIAN_POINT ( 'NONE',  ( 0.0000000000000000000, 3.796279696849369800E-016, -1.030000000000000000 ) ) ;
#90 = FACE_OUTER_BOUND ( 'NONE', #9, .T. ) ;
#91 = DIRECTION ( 'NONE',  ( 0.0000000000000000000, 1.000000000000000000, 3.073328992872295900E-016 ) ) ;
#92 = AXIS2_PLACEMENT_3D ( 'NONE', #102, #123, #85 ) ;
#93 = PERSON_AND_ORGANIZATION_ROLE ( 'creator' ) ;
#94 =( NAMED_UNIT ( * ) SI_UNIT ( $, .STERADIAN. ) SOLID_ANGLE_UNIT ( ) );
#95 =( NAMED_UNIT ( * ) PLANE_ANGLE_UNIT ( ) SI_UNIT ( $, .RADIAN. ) );
#96 = DIRECTION ( 'NONE',  ( 0.0000000000000000000, 1.000000000000000000, 3.166045774748745500E-016 ) ) ;
#97 = DIRECTION ( 'NONE',  ( 1.000000000000000000, 0.0000000000000000000, 0.0000000000000000000 ) ) ;
#98 = CARTESIAN_POINT ( 'NONE',  ( 0.0000000000000000000, -2.334419857407225800E-016, 0.9725045714064034500 ) ) ;
#99 = AXIS2_PLACEMENT_3D ( 'NONE', #98, #118, #117 ) ;
#100 = CIRCLE ( 'NONE', #99, 12.70000000000000300 ) ;
#101 = FACE_OUTER_BOUND ( 'NONE', #40, .T. ) ;
#102 = CARTESIAN_POINT ( 'NONE',  ( 0.0000000000000000000, -2.334419857407225800E-016, 0.9725045714064034500 ) ) ;
#103 = CIRCLE ( 'NONE', #92, 12.70000000000000300 ) ;
#104 = CARTESIAN_POINT ( 'NONE',  ( 1.555250069354089100E-015, -12.69999999999756400, 0.9725045714064034500 ) ) ;
#105 = CARTESIAN_POINT ( 'NONE',  ( 0.0000000000000000000, 1.715198354439867400E-013, -1401.632000000000300 ) ) ;
#106 = VECTOR ( 'NONE', #124, 1000.000000000000000 ) ;
#107 = CARTESIAN_POINT ( 'NONE',  ( 0.0000000000000000000, 12.70000000000000100, -1.029999999999996300 ) ) ;
#108 = CARTESIAN_POINT ( 'NONE',  ( 0.0000000000000000000, -1.720219240490539900E-013, 1.030000000000086400 ) ) ;
#109 = LINE ( 'NONE', #107, #106 ) ;
#110 = SPHERICAL_SURFACE ( 'NONE', #116, 1402.662000000000300 ) ;
#111 = AXIS2_PLACEMENT_3D ( 'NONE', #105, #97, #96 ) ;
#112 = SPHERICAL_SURFACE ( 'NONE', #111, 1402.662000000000300 ) ;
#113 = DIRECTION ( 'NONE',  ( -1.224606353822377300E-016, 1.000000000000000000, 0.0000000000000000000 ) ) ;
#114 = DIRECTION ( 'NONE',  ( 1.000000000000000000, 1.224606353822377300E-016, 3.749151804555343600E-032 ) ) ;
#115 = CARTESIAN_POINT ( 'NONE',  ( 0.0000000000000000000, 12.69999999999730500, 0.9725045714064073400 ) ) ;
#116 = AXIS2_PLACEMENT_3D ( 'NONE', #67, #66, #65 ) ;
#117 = DIRECTION ( 'NONE',  ( 0.0000000000000000000, 1.000000000000000000, 3.073328992872295400E-016 ) ) ;
#118 = DIRECTION ( 'NONE',  ( 0.0000000000000000000, 3.061515884555943100E-016, -1.000000000000000000 ) ) ;
#119 = CYLINDRICAL_SURFACE ( 'NONE', #70, 12.70000000000000100 ) ;
#120 = DIRECTION ( 'NONE',  ( 0.0000000000000000000, 1.000000000000000000, 3.061515884555943100E-016 ) ) ;
#121 = DIRECTION ( 'NONE',  ( 0.0000000000000000000, 3.061515884555943100E-016, -1.000000000000000000 ) ) ;
#122 = CARTESIAN_POINT ( 'NONE',  ( 0.0000000000000000000, 3.796279696849375200E-016, -1.030000000000002000 ) ) ;
#123 = DIRECTION ( 'NONE',  ( 0.0000000000000000000, 3.061515884555943100E-016, -1.000000000000000000 ) ) ;
#124 = DIRECTION ( 'NONE',  ( 0.0000000000000000000, 3.061515884555943100E-016, -1.000000000000000000 ) ) ;
#125 = CC_DESIGN_DATE_AND_TIME_ASSIGNMENT ( #141, #135, ( #149 ) ) ;
#126 = COORDINATED_UNIVERSAL_TIME_OFFSET ( 5, 0, .BEHIND. ) ;
#127 = SECURITY_CLASSIFICATION_LEVEL ( 'unclassified' ) ;
#128 = DIRECTION ( 'NONE',  ( 0.0000000000000000000, 0.0000000000000000000, 1.000000000000000000 ) ) ;
#129 = CC_DESIGN_PERSON_AND_ORGANIZATION_ASSIGNMENT ( #144, #152, ( #149 ) ) ;
#130 = LOCAL_TIME ( 16, 51, 18.00000000000000000, #138 ) ;
#131 = CC_DESIGN_APPROVAL ( #151, ( #149 ) ) ;
#132 = APPROVAL_DATE_TIME ( #146, #151 ) ;
#133 = AXIS2_PLACEMENT_3D ( 'NONE', #140, #128, #153 ) ;
#134 = LOCAL_TIME ( 16, 51, 18.00000000000000000, #126 ) ;
#135 = DATE_TIME_ROLE ( 'classification_date' ) ;
#136 = APPROVAL_STATUS ( 'not_yet_approved' ) ;
#137 = CC_DESIGN_PERSON_AND_ORGANIZATION_ASSIGNMENT ( #142, #148, ( #185 ) ) ;
#138 = COORDINATED_UNIVERSAL_TIME_OFFSET ( 5, 0, .BEHIND. ) ;
#139 = CALENDAR_DATE ( 2009, 14, 9 ) ;
#140 = CARTESIAN_POINT ( 'NONE',  ( 0.0000000000000000000, 0.0000000000000000000, 0.0000000000000000000 ) ) ;
#141 = DATE_AND_TIME ( #139, #130 ) ;
#142 = PERSON_AND_ORGANIZATION ( #197, #196 ) ;
#143 = APPROVAL_PERSON_ORGANIZATION ( #150, #151, #145 ) ;
#144 = PERSON_AND_ORGANIZATION ( #197, #196 ) ;
#145 = APPROVAL_ROLE ( '' ) ;
#146 = DATE_AND_TIME ( #147, #134 ) ;
#147 = CALENDAR_DATE ( 2009, 14, 9 ) ;
#148 = PERSON_AND_ORGANIZATION_ROLE ( 'design_supplier' ) ;
#149 = SECURITY_CLASSIFICATION ( '', '', #127 ) ;
#150 = PERSON_AND_ORGANIZATION ( #197, #196 ) ;
#151 = APPROVAL ( #136, 'UNSPECIFIED' ) ;
#152 = PERSON_AND_ORGANIZATION_ROLE ( 'classification_officer' ) ;
#153 = DIRECTION ( 'NONE',  ( 1.000000000000000000, 0.0000000000000000000, 0.0000000000000000000 ) ) ;
#154 = APPLICATION_PROTOCOL_DEFINITION ( 'international standard', 'config_control_design', 1994, #181 ) ;
#155 = MECHANICAL_CONTEXT ( 'NONE', #181, 'mechanical' ) ;
#156 = PRODUCT ( '20192-E0W', '20192-E0W', '', ( #155 ) ) ;
#157 = PRODUCT_DEFINITION ( 'UNKNOWN', '', #185, #158 ) ;
#158 = DESIGN_CONTEXT ( 'detailed design', #193, 'design' ) ;
#159 = APPROVAL_DATE_TIME ( #160, #171 ) ;
#160 = DATE_AND_TIME ( #161, #162 ) ;
#161 = CALENDAR_DATE ( 2009, 14, 9 ) ;
#162 = LOCAL_TIME ( 16, 51, 18.00000000000000000, #163 ) ;
#163 = COORDINATED_UNIVERSAL_TIME_OFFSET ( 5, 0, .BEHIND. ) ;
#164 = DATE_AND_TIME ( #188, #189 ) ;
#165 = CC_DESIGN_PERSON_AND_ORGANIZATION_ASSIGNMENT ( #167, #166, ( #157 ) ) ;
#166 = PERSON_AND_ORGANIZATION_ROLE ( 'creator' ) ;
#167 = PERSON_AND_ORGANIZATION ( #197, #196 ) ;
#168 = CC_DESIGN_APPROVAL ( #171, ( #157 ) ) ;
#169 = APPROVAL_PERSON_ORGANIZATION ( #173, #171, #170 ) ;
#170 = APPROVAL_ROLE ( '' ) ;
#171 = APPROVAL ( #172, 'UNSPECIFIED' ) ;
#172 = APPROVAL_STATUS ( 'not_yet_approved' ) ;
#173 = PERSON_AND_ORGANIZATION ( #197, #196 ) ;
#174 = APPROVAL_DATE_TIME ( #175, #182 ) ;
#175 = DATE_AND_TIME ( #176, #177 ) ;
#176 = CALENDAR_DATE ( 2009, 14, 9 ) ;
#177 = LOCAL_TIME ( 16, 51, 18.00000000000000000, #178 ) ;
#178 = COORDINATED_UNIVERSAL_TIME_OFFSET ( 5, 0, .BEHIND. ) ;
#179 = APPROVAL_PERSON_ORGANIZATION ( #184, #182, #180 ) ;
#180 = APPROVAL_ROLE ( '' ) ;
#181 = APPLICATION_CONTEXT ( 'configuration controlled 3d designs of mechanical parts and assemblies' ) ;
#182 = APPROVAL ( #183, 'UNSPECIFIED' ) ;
#183 = APPROVAL_STATUS ( 'not_yet_approved' ) ;
#184 = PERSON_AND_ORGANIZATION ( #197, #196 ) ;
#185 = PRODUCT_DEFINITION_FORMATION_WITH_SPECIFIED_SOURCE ( 'ANY', '', #156, .NOT_KNOWN. ) ;
#186 = CC_DESIGN_DATE_AND_TIME_ASSIGNMENT ( #164, #187, ( #157 ) ) ;
#187 = DATE_TIME_ROLE ( 'creation_date' ) ;
#188 = CALENDAR_DATE ( 2009, 14, 9 ) ;
#189 = LOCAL_TIME ( 16, 51, 18.00000000000000000, #190 ) ;
#190 = COORDINATED_UNIVERSAL_TIME_OFFSET ( 5, 0, .BEHIND. ) ;
#191 = PERSON_AND_ORGANIZATION ( #197, #196 ) ;
#192 = APPLICATION_PROTOCOL_DEFINITION ( 'international standard', 'config_control_design', 1994, #193 ) ;
#193 = APPLICATION_CONTEXT ( 'configuration controlled 3d designs of mechanical parts and assemblies' ) ;
#194 = CC_DESIGN_PERSON_AND_ORGANIZATION_ASSIGNMENT ( #191, #195, ( #156 ) ) ;
#195 = PERSON_AND_ORGANIZATION_ROLE ( 'design_owner' ) ;
#196 = ORGANIZATION ( 'UNSPECIFIED', 'UNSPECIFIED', '' ) ;
#197 = PERSON ( 'UNSPECIFIED', 'UNSPECIFIED', 'UNSPECIFIED', ('UNSPECIFIED'), ('UNSPECIFIED'), ('UNSPECIFIED') ) ;
#198 = SHAPE_DEFINITION_REPRESENTATION ( #199, #16 ) ;
#199 = PRODUCT_DEFINITION_SHAPE ( 'NONE', 'NONE',  #157 ) ;
#200 = PRODUCT_RELATED_PRODUCT_CATEGORY ( 'detail', '', ( #156 ) ) ;
#201 = CC_DESIGN_SECURITY_CLASSIFICATION ( #149, ( #185 ) ) ;
ENDSEC;
END-ISO-10303-21;
