ISO-10303-21;
HEADER;
FILE_DESCRIPTION (( 'STEP AP214' ),
    '1' );
FILE_NAME ('4436-E0W.STEP',
    '2009-12-21T17:01:22',
    ( ' ' ),
    ( ' ' ),
    'SwSTEP 2.0',
    'SolidWorks 2009',
    '' );
FILE_SCHEMA (( 'AUTOMOTIVE_DESIGN' ));
ENDSEC;

DATA;
#1 = CLOSED_SHELL ( 'NONE', ( #57, #85, #81, #27, #63 ) ) ;
#2 = EDGE_LOOP ( 'NONE', ( #84, #29, #60, #26 ) ) ;
#3 = ORIENTED_EDGE ( 'NONE', *, *, #15, .F. ) ;
#4 = EDGE_LOOP ( 'NONE', ( #5, #3 ) ) ;
#5 = ORIENTED_EDGE ( 'NONE', *, *, #18, .F. ) ;
#6 = EDGE_CURVE ( 'NONE', #71, #73, #35, .T. ) ;
#7 = EDGE_LOOP ( 'NONE', ( #56, #61, #77, #9 ) ) ;
#8 = EDGE_CURVE ( 'NONE', #40, #16, #24, .T. ) ;
#9 = ORIENTED_EDGE ( 'NONE', *, *, #80, .F. ) ;
#10 = VERTEX_POINT ( 'NONE', #20 ) ;
#11 = VERTEX_POINT ( 'NONE', #19 ) ;
#12 = EDGE_LOOP ( 'NONE', ( #72, #74, #17, #79, #82 ) ) ;
#13 = ORIENTED_EDGE ( 'NONE', *, *, #76, .F. ) ;
#14 = ORIENTED_EDGE ( 'NONE', *, *, #15, .T. ) ;
#15 = EDGE_CURVE ( 'NONE', #10, #11, #46, .T. ) ;
#16 = VERTEX_POINT ( 'NONE', #41 ) ;
#17 = ORIENTED_EDGE ( 'NONE', *, *, #78, .F. ) ;
#18 = EDGE_CURVE ( 'NONE', #11, #10, #69, .T. ) ;
#19 = CARTESIAN_POINT ( 'NONE',  ( 12.69999999999999900, 0.0000000000000000000, -1.629999999999999400 ) ) ;
#20 = CARTESIAN_POINT ( 'NONE',  ( -12.69999999999999900, 1.555250069354419100E-015, -1.629999999999999400 ) ) ;
#21 = DIRECTION ( 'NONE',  ( -1.224606353822377300E-016, -1.000000000000000000, 0.0000000000000000000 ) ) ;
#22 = DIRECTION ( 'NONE',  ( -1.000000000000000000, 1.224606353822377300E-016, 0.0000000000000000000 ) ) ;
#23 = AXIS2_PLACEMENT_3D ( 'NONE', #36, #22, #21 ) ;
#24 = CIRCLE ( 'NONE', #23, 64.37999999999999500 ) ;
#25 = MANIFOLD_SOLID_BREP ( 'NONE', #1 ) ;
#26 = ORIENTED_EDGE ( 'NONE', *, *, #80, .T. ) ;
#27 = ADVANCED_FACE ( 'NONE', ( #93 ), #99, .T. ) ;
#28 = EDGE_LOOP ( 'NONE', ( #13, #14, #58, #59, #37 ) ) ;
#29 = ORIENTED_EDGE ( 'NONE', *, *, #30, .T. ) ;
#30 = EDGE_CURVE ( 'NONE', #40, #71, #154, .T. ) ;
#31 = DIRECTION ( 'NONE',  ( 1.000000000000000000, 0.0000000000000000000, 0.0000000000000000000 ) ) ;
#32 = DIRECTION ( 'NONE',  ( -0.0000000000000000000, -0.0000000000000000000, 1.000000000000000000 ) ) ;
#33 = CARTESIAN_POINT ( 'NONE',  ( 0.0000000000000000000, 0.0000000000000000000, 0.3649300878960084500 ) ) ;
#34 = AXIS2_PLACEMENT_3D ( 'NONE', #33, #32, #31 ) ;
#35 = CIRCLE ( 'NONE', #34, 12.69999999999999900 ) ;
#36 = CARTESIAN_POINT ( 'NONE',  ( 0.0000000000000000000, 0.0000000000000000000, -62.74999999999998600 ) ) ;
#37 = ORIENTED_EDGE ( 'NONE', *, *, #62, .F. ) ;
#38 =( NAMED_UNIT ( * ) SI_UNIT ( $, .STERADIAN. ) SOLID_ANGLE_UNIT ( ) );
#39 =( NAMED_UNIT ( * ) PLANE_ANGLE_UNIT ( ) SI_UNIT ( $, .RADIAN. ) );
#40 = VERTEX_POINT ( 'NONE', #167 ) ;
#41 = CARTESIAN_POINT ( 'NONE',  ( 0.0000000000000000000, 3.942007852954232000E-015, 1.630000000000006600 ) ) ;
#42 = DIRECTION ( 'NONE',  ( 1.000000000000000000, 0.0000000000000000000, 0.0000000000000000000 ) ) ;
#43 = DIRECTION ( 'NONE',  ( -0.0000000000000000000, -0.0000000000000000000, 1.000000000000000000 ) ) ;
#44 = CARTESIAN_POINT ( 'NONE',  ( 0.0000000000000000000, 0.0000000000000000000, -1.629999999999999400 ) ) ;
#45 = AXIS2_PLACEMENT_3D ( 'NONE', #44, #43, #42 ) ;
#46 = CIRCLE ( 'NONE', #45, 12.69999999999999900 ) ;
#47 =( LENGTH_UNIT ( ) NAMED_UNIT ( * ) SI_UNIT ( .MILLI., .METRE. ) );
#48 = MECHANICAL_DESIGN_GEOMETRIC_PRESENTATION_REPRESENTATION (  '', ( #50 ), #165 ) ;
#49 = PRESENTATION_LAYER_ASSIGNMENT (  '', '', ( #50 ) ) ;
#50 = STYLED_ITEM ( 'NONE', ( #51 ), #25 ) ;
#51 = PRESENTATION_STYLE_ASSIGNMENT (( #52 ) ) ;
#52 = SURFACE_STYLE_USAGE ( .BOTH. , #53 ) ;
#53 = SURFACE_SIDE_STYLE ('',( #54 ) ) ;
#54 = SURFACE_STYLE_FILL_AREA ( #55 ) ;
#55 = FILL_AREA_STYLE ('',( #64 ) ) ;
#56 = ORIENTED_EDGE ( 'NONE', *, *, #78, .T. ) ;
#57 = ADVANCED_FACE ( 'NONE', ( #160 ), #136, .T. ) ;
#58 = ORIENTED_EDGE ( 'NONE', *, *, #83, .T. ) ;
#59 = ORIENTED_EDGE ( 'NONE', *, *, #30, .F. ) ;
#60 = ORIENTED_EDGE ( 'NONE', *, *, #6, .T. ) ;
#61 = ORIENTED_EDGE ( 'NONE', *, *, #62, .T. ) ;
#62 = EDGE_CURVE ( 'NONE', #75, #40, #110, .T. ) ;
#63 = ADVANCED_FACE ( 'NONE', ( #123 ), #91, .F. ) ;
#64 = FILL_AREA_STYLE_COLOUR ( '', #70 ) ;
#65 = DIRECTION ( 'NONE',  ( 1.000000000000000000, 0.0000000000000000000, 0.0000000000000000000 ) ) ;
#66 = DIRECTION ( 'NONE',  ( -0.0000000000000000000, -0.0000000000000000000, 1.000000000000000000 ) ) ;
#67 = CARTESIAN_POINT ( 'NONE',  ( 0.0000000000000000000, 0.0000000000000000000, -1.629999999999999400 ) ) ;
#68 = AXIS2_PLACEMENT_3D ( 'NONE', #67, #66, #65 ) ;
#69 = CIRCLE ( 'NONE', #68, 12.69999999999999900 ) ;
#70 = COLOUR_RGB ( '',0.7960784313725489700, 0.8235294117647058400, 0.9372549019607843100 ) ;
#71 = VERTEX_POINT ( 'NONE', #145 ) ;
#72 = ORIENTED_EDGE ( 'NONE', *, *, #18, .T. ) ;
#73 = VERTEX_POINT ( 'NONE', #144 ) ;
#74 = ORIENTED_EDGE ( 'NONE', *, *, #76, .T. ) ;
#75 = VERTEX_POINT ( 'NONE', #143 ) ;
#76 = EDGE_CURVE ( 'NONE', #10, #75, #142, .T. ) ;
#77 = ORIENTED_EDGE ( 'NONE', *, *, #8, .T. ) ;
#78 = EDGE_CURVE ( 'NONE', #73, #75, #184, .T. ) ;
#79 = ORIENTED_EDGE ( 'NONE', *, *, #6, .F. ) ;
#80 = EDGE_CURVE ( 'NONE', #73, #16, #249, .T. ) ;
#81 = ADVANCED_FACE ( 'NONE', ( #170 ), #181, .T. ) ;
#82 = ORIENTED_EDGE ( 'NONE', *, *, #83, .F. ) ;
#83 = EDGE_CURVE ( 'NONE', #11, #71, #220, .T. ) ;
#84 = ORIENTED_EDGE ( 'NONE', *, *, #8, .F. ) ;
#85 = ADVANCED_FACE ( 'NONE', ( #216 ), #172, .T. ) ;
#86 = UNCERTAINTY_MEASURE_WITH_UNIT (LENGTH_MEASURE( 1.000000000000000100E-005 ), #148, 'distance_accuracy_value', 'NONE');
#87 =( GEOMETRIC_REPRESENTATION_CONTEXT ( 3 ) GLOBAL_UNCERTAINTY_ASSIGNED_CONTEXT ( ( #137 ) ) GLOBAL_UNIT_ASSIGNED_CONTEXT ( ( #103, #156, #138 ) ) REPRESENTATION_CONTEXT ( 'NONE', 'WORKASPACE' ) );
#88 = DIRECTION ( 'NONE',  ( 0.0000000000000000000, -0.0000000000000000000, 1.000000000000000000 ) ) ;
#89 = CARTESIAN_POINT ( 'NONE',  ( 0.0000000000000000000, 5.988522847830557000E-016, -1.629999999999999900 ) ) ;
#90 = AXIS2_PLACEMENT_3D ( 'NONE', #89, #88, #146 ) ;
#91 = PLANE ( 'NONE',  #90 ) ;
#92 =( NAMED_UNIT ( * ) SI_UNIT ( $, .STERADIAN. ) SOLID_ANGLE_UNIT ( ) );
#93 = FACE_OUTER_BOUND ( 'NONE', #28, .T. ) ;
#94 = FILL_AREA_STYLE_COLOUR ( '', #147 ) ;
#95 =( NAMED_UNIT ( * ) PLANE_ANGLE_UNIT ( ) SI_UNIT ( $, .RADIAN. ) );
#96 =( NAMED_UNIT ( * ) SI_UNIT ( $, .STERADIAN. ) SOLID_ANGLE_UNIT ( ) );
#97 = UNCERTAINTY_MEASURE_WITH_UNIT (LENGTH_MEASURE( 1.000000000000000100E-005 ), #116, 'distance_accuracy_value', 'NONE');
#98 = CARTESIAN_POINT ( 'NONE',  ( 0.0000000000000000000, 0.0000000000000000000, 4.308132045400366600 ) ) ;
#99 = CYLINDRICAL_SURFACE ( 'NONE', #101, 12.69999999999999900 ) ;
#100 = DIRECTION ( 'NONE',  ( 1.000000000000000000, 0.0000000000000000000, 0.0000000000000000000 ) ) ;
#101 = AXIS2_PLACEMENT_3D ( 'NONE', #98, #150, #100 ) ;
#102 =( GEOMETRIC_REPRESENTATION_CONTEXT ( 3 ) GLOBAL_UNCERTAINTY_ASSIGNED_CONTEXT ( ( #97 ) ) GLOBAL_UNIT_ASSIGNED_CONTEXT ( ( #116, #149, #96 ) ) REPRESENTATION_CONTEXT ( 'NONE', 'WORKASPACE' ) );
#103 =( LENGTH_UNIT ( ) NAMED_UNIT ( * ) SI_UNIT ( .MILLI., .METRE. ) );
#104 = MECHANICAL_DESIGN_GEOMETRIC_PRESENTATION_REPRESENTATION (  '', ( #106 ), #87 ) ;
#105 = PRESENTATION_LAYER_ASSIGNMENT (  '', '', ( #106 ) ) ;
#106 = STYLED_ITEM ( 'NONE', ( #117 ), #63 ) ;
#107 = MECHANICAL_DESIGN_GEOMETRIC_PRESENTATION_REPRESENTATION (  '', ( #109 ), #135 ) ;
#108 = PRESENTATION_LAYER_ASSIGNMENT (  '', '', ( #109 ) ) ;
#109 = STYLED_ITEM ( 'NONE', ( #131 ), #57 ) ;
#110 = CIRCLE ( 'NONE', #127, 12.69999999999999900 ) ;
#111 = DIRECTION ( 'NONE',  ( 1.000000000000000000, 0.0000000000000000000, 0.0000000000000000000 ) ) ;
#112 = DIRECTION ( 'NONE',  ( -0.0000000000000000000, -0.0000000000000000000, 1.000000000000000000 ) ) ;
#113 = UNCERTAINTY_MEASURE_WITH_UNIT (LENGTH_MEASURE( 1.000000000000000100E-005 ), #47, 'distance_accuracy_value', 'NONE');
#114 = SURFACE_STYLE_USAGE ( .BOTH. , #115 ) ;
#115 = SURFACE_SIDE_STYLE ('',( #162 ) ) ;
#116 =( LENGTH_UNIT ( ) NAMED_UNIT ( * ) SI_UNIT ( .MILLI., .METRE. ) );
#117 = PRESENTATION_STYLE_ASSIGNMENT (( #118 ) ) ;
#118 = SURFACE_STYLE_USAGE ( .BOTH. , #119 ) ;
#119 = SURFACE_SIDE_STYLE ('',( #120 ) ) ;
#120 = SURFACE_STYLE_FILL_AREA ( #121 ) ;
#121 = FILL_AREA_STYLE ('',( #128 ) ) ;
#122 = COLOUR_RGB ( '',0.9568627450980391500, 0.9490196078431372100, 0.9607843137254902200 ) ;
#123 = FACE_OUTER_BOUND ( 'NONE', #4, .T. ) ;
#124 = DIRECTION ( 'NONE',  ( 1.000000000000000000, 0.0000000000000000000, 0.0000000000000000000 ) ) ;
#125 = DIRECTION ( 'NONE',  ( -0.0000000000000000000, -0.0000000000000000000, 1.000000000000000000 ) ) ;
#126 = CARTESIAN_POINT ( 'NONE',  ( 0.0000000000000000000, 0.0000000000000000000, 0.3649300878960084500 ) ) ;
#127 = AXIS2_PLACEMENT_3D ( 'NONE', #126, #125, #124 ) ;
#128 = FILL_AREA_STYLE_COLOUR ( '', #122 ) ;
#129 = CARTESIAN_POINT ( 'NONE',  ( 0.0000000000000000000, 0.0000000000000000000, 4.308132045400366600 ) ) ;
#130 = AXIS2_PLACEMENT_3D ( 'NONE', #129, #112, #111 ) ;
#131 = PRESENTATION_STYLE_ASSIGNMENT (( #132 ) ) ;
#132 = SURFACE_STYLE_USAGE ( .BOTH. , #133 ) ;
#133 = SURFACE_SIDE_STYLE ('',( #134 ) ) ;
#134 = SURFACE_STYLE_FILL_AREA ( #157 ) ;
#135 =( GEOMETRIC_REPRESENTATION_CONTEXT ( 3 ) GLOBAL_UNCERTAINTY_ASSIGNED_CONTEXT ( ( #86 ) ) GLOBAL_UNIT_ASSIGNED_CONTEXT ( ( #148, #95, #92 ) ) REPRESENTATION_CONTEXT ( 'NONE', 'WORKASPACE' ) );
#136 = CYLINDRICAL_SURFACE ( 'NONE', #130, 12.69999999999999900 ) ;
#137 = UNCERTAINTY_MEASURE_WITH_UNIT (LENGTH_MEASURE( 1.000000000000000100E-005 ), #103, 'distance_accuracy_value', 'NONE');
#138 =( NAMED_UNIT ( * ) SI_UNIT ( $, .STERADIAN. ) SOLID_ANGLE_UNIT ( ) );
#139 = DIRECTION ( 'NONE',  ( -0.0000000000000000000, -0.0000000000000000000, 1.000000000000000000 ) ) ;
#140 = VECTOR ( 'NONE', #139, 1000.000000000000000 ) ;
#141 = CARTESIAN_POINT ( 'NONE',  ( -12.69999999999999900, 1.555250069354419100E-015, 4.308132045400366600 ) ) ;
#142 = LINE ( 'NONE', #141, #140 ) ;
#143 = CARTESIAN_POINT ( 'NONE',  ( -12.69999999999999900, 1.555250069354419100E-015, 0.3649300878960084500 ) ) ;
#144 = CARTESIAN_POINT ( 'NONE',  ( 0.0000000000000000000, 12.69999999999999400, 0.3649300878960088900 ) ) ;
#145 = CARTESIAN_POINT ( 'NONE',  ( 12.69999999999999900, 0.0000000000000000000, 0.3649300878960084500 ) ) ;
#146 = DIRECTION ( 'NONE',  ( 1.000000000000000000, 0.0000000000000000000, 0.0000000000000000000 ) ) ;
#147 = COLOUR_RGB ( '',0.9568627450980391500, 0.9490196078431372100, 0.9607843137254902200 ) ;
#148 =( LENGTH_UNIT ( ) NAMED_UNIT ( * ) SI_UNIT ( .MILLI., .METRE. ) );
#149 =( NAMED_UNIT ( * ) PLANE_ANGLE_UNIT ( ) SI_UNIT ( $, .RADIAN. ) );
#150 = DIRECTION ( 'NONE',  ( -0.0000000000000000000, -0.0000000000000000000, 1.000000000000000000 ) ) ;
#151 = DIRECTION ( 'NONE',  ( -0.0000000000000000000, -0.0000000000000000000, 1.000000000000000000 ) ) ;
#152 = CARTESIAN_POINT ( 'NONE',  ( 0.0000000000000000000, 0.0000000000000000000, 0.3649300878960084500 ) ) ;
#153 = AXIS2_PLACEMENT_3D ( 'NONE', #152, #151, #168 ) ;
#154 = CIRCLE ( 'NONE', #153, 12.69999999999999900 ) ;
#155 = FILL_AREA_STYLE ('',( #94 ) ) ;
#156 =( NAMED_UNIT ( * ) PLANE_ANGLE_UNIT ( ) SI_UNIT ( $, .RADIAN. ) );
#157 = FILL_AREA_STYLE ('',( #158 ) ) ;
#158 = FILL_AREA_STYLE_COLOUR ( '', #159 ) ;
#159 = COLOUR_RGB ( '',0.9568627450980391500, 0.9490196078431372100, 0.9607843137254902200 ) ;
#160 = FACE_OUTER_BOUND ( 'NONE', #12, .T. ) ;
#161 = PRESENTATION_STYLE_ASSIGNMENT (( #114 ) ) ;
#162 = SURFACE_STYLE_FILL_AREA ( #155 ) ;
#163 = PRESENTATION_LAYER_ASSIGNMENT (  '', '', ( #166 ) ) ;
#164 = MECHANICAL_DESIGN_GEOMETRIC_PRESENTATION_REPRESENTATION (  '', ( #166 ), #102 ) ;
#165 =( GEOMETRIC_REPRESENTATION_CONTEXT ( 3 ) GLOBAL_UNCERTAINTY_ASSIGNED_CONTEXT ( ( #113 ) ) GLOBAL_UNIT_ASSIGNED_CONTEXT ( ( #47, #39, #38 ) ) REPRESENTATION_CONTEXT ( 'NONE', 'WORKASPACE' ) );
#166 = STYLED_ITEM ( 'NONE', ( #161 ), #27 ) ;
#167 = CARTESIAN_POINT ( 'NONE',  ( -1.555250069354418500E-015, -12.69999999999999400, 0.3649300878960088900 ) ) ;
#168 = DIRECTION ( 'NONE',  ( 1.000000000000000000, 0.0000000000000000000, 0.0000000000000000000 ) ) ;
#169 =( LENGTH_UNIT ( ) NAMED_UNIT ( * ) SI_UNIT ( .MILLI., .METRE. ) );
#170 = FACE_OUTER_BOUND ( 'NONE', #2, .T. ) ;
#171 = AXIS2_PLACEMENT_3D ( 'NONE', #191, #202, #201 ) ;
#172 = SPHERICAL_SURFACE ( 'NONE', #171, 64.37999999999999500 ) ;
#173 = STYLED_ITEM ( 'NONE', ( #174 ), #241 ) ;
#174 = PRESENTATION_STYLE_ASSIGNMENT (( #175 ) ) ;
#175 = SURFACE_STYLE_USAGE ( .BOTH. , #176 ) ;
#176 = SURFACE_SIDE_STYLE ('',( #177 ) ) ;
#177 = SURFACE_STYLE_FILL_AREA ( #178 ) ;
#178 = FILL_AREA_STYLE ('',( #179 ) ) ;
#179 = FILL_AREA_STYLE_COLOUR ( '', #180 ) ;
#180 = COLOUR_RGB ( '',0.7960784313725489700, 0.8235294117647058400, 0.9372549019607843100 ) ;
#181 = SPHERICAL_SURFACE ( 'NONE', #218, 64.37999999999999500 ) ;
#182 =( LENGTH_UNIT ( ) NAMED_UNIT ( * ) SI_UNIT ( .MILLI., .METRE. ) );
#183 = FILL_AREA_STYLE ('',( #186 ) ) ;
#184 = CIRCLE ( 'NONE', #227, 12.69999999999999900 ) ;
#185 = MECHANICAL_DESIGN_GEOMETRIC_PRESENTATION_REPRESENTATION (  '', ( #232 ), #219 ) ;
#186 = FILL_AREA_STYLE_COLOUR ( '', #208 ) ;
#187 = PRESENTATION_LAYER_ASSIGNMENT (  '', '', ( #188 ) ) ;
#188 = STYLED_ITEM ( 'NONE', ( #189 ), #85 ) ;
#189 = PRESENTATION_STYLE_ASSIGNMENT (( #209 ) ) ;
#190 = MECHANICAL_DESIGN_GEOMETRIC_PRESENTATION_REPRESENTATION (  '', ( #188 ), #206 ) ;
#191 = CARTESIAN_POINT ( 'NONE',  ( 0.0000000000000000000, 0.0000000000000000000, -62.74999999999998600 ) ) ;
#192 = SURFACE_SIDE_STYLE ('',( #236 ) ) ;
#193 = CARTESIAN_POINT ( 'NONE',  ( 0.0000000000000000000, 0.0000000000000000000, 0.3649300878960084500 ) ) ;
#194 = CARTESIAN_POINT ( 'NONE',  ( 0.0000000000000000000, 0.0000000000000000000, -62.74999999999998600 ) ) ;
#195 =( NAMED_UNIT ( * ) PLANE_ANGLE_UNIT ( ) SI_UNIT ( $, .RADIAN. ) );
#196 = SURFACE_STYLE_USAGE ( .BOTH. , #192 ) ;
#197 = PRESENTATION_STYLE_ASSIGNMENT (( #196 ) ) ;
#198 = DIRECTION ( 'NONE',  ( 0.0000000000000000000, 0.0000000000000000000, -1.000000000000000000 ) ) ;
#199 =( LENGTH_UNIT ( ) NAMED_UNIT ( * ) SI_UNIT ( .MILLI., .METRE. ) );
#200 = DIRECTION ( 'NONE',  ( 1.000000000000000000, 0.0000000000000000000, 0.0000000000000000000 ) ) ;
#201 = DIRECTION ( 'NONE',  ( 0.0000000000000000000, 1.000000000000000000, 0.0000000000000000000 ) ) ;
#202 = DIRECTION ( 'NONE',  ( -1.000000000000000000, 0.0000000000000000000, 0.0000000000000000000 ) ) ;
#203 = AXIS2_PLACEMENT_3D ( 'NONE', #225, #204, #205 ) ;
#204 = DIRECTION ( 'NONE',  ( 0.0000000000000000000, 0.0000000000000000000, 1.000000000000000000 ) ) ;
#205 = DIRECTION ( 'NONE',  ( 1.000000000000000000, 0.0000000000000000000, 0.0000000000000000000 ) ) ;
#206 =( GEOMETRIC_REPRESENTATION_CONTEXT ( 3 ) GLOBAL_UNCERTAINTY_ASSIGNED_CONTEXT ( ( #239 ) ) GLOBAL_UNIT_ASSIGNED_CONTEXT ( ( #169, #228, #240 ) ) REPRESENTATION_CONTEXT ( 'NONE', 'WORKASPACE' ) );
#207 = UNCERTAINTY_MEASURE_WITH_UNIT (LENGTH_MEASURE( 1.000000000000000100E-005 ), #233, 'distance_accuracy_value', 'NONE');
#208 = COLOUR_RGB ( '',0.9568627450980391500, 0.9490196078431372100, 0.9607843137254902200 ) ;
#209 = SURFACE_STYLE_USAGE ( .BOTH. , #210 ) ;
#210 = SURFACE_SIDE_STYLE ('',( #211 ) ) ;
#211 = SURFACE_STYLE_FILL_AREA ( #245 ) ;
#212 = COLOUR_RGB ( '',0.9568627450980391500, 0.9490196078431372100, 0.9607843137254902200 ) ;
#213 = UNCERTAINTY_MEASURE_WITH_UNIT (LENGTH_MEASURE( 1.000000000000000100E-005 ), #199, 'distance_accuracy_value', 'NONE');
#214 =( NAMED_UNIT ( * ) SI_UNIT ( $, .STERADIAN. ) SOLID_ANGLE_UNIT ( ) );
#215 = FILL_AREA_STYLE_COLOUR ( '', #212 ) ;
#216 = FACE_OUTER_BOUND ( 'NONE', #7, .T. ) ;
#217 = VECTOR ( 'NONE', #243, 1000.000000000000000 ) ;
#218 = AXIS2_PLACEMENT_3D ( 'NONE', #194, #224, #221 ) ;
#219 =( GEOMETRIC_REPRESENTATION_CONTEXT ( 3 ) GLOBAL_UNCERTAINTY_ASSIGNED_CONTEXT ( ( #213 ) ) GLOBAL_UNIT_ASSIGNED_CONTEXT ( ( #199, #195, #214 ) ) REPRESENTATION_CONTEXT ( 'NONE', 'WORKASPACE' ) );
#220 = LINE ( 'NONE', #244, #217 ) ;
#221 = DIRECTION ( 'NONE',  ( 0.0000000000000000000, 1.000000000000000000, 0.0000000000000000000 ) ) ;
#222 =( NAMED_UNIT ( * ) SI_UNIT ( $, .STERADIAN. ) SOLID_ANGLE_UNIT ( ) );
#223 =( NAMED_UNIT ( * ) PLANE_ANGLE_UNIT ( ) SI_UNIT ( $, .RADIAN. ) );
#224 = DIRECTION ( 'NONE',  ( -1.000000000000000000, 0.0000000000000000000, 0.0000000000000000000 ) ) ;
#225 = CARTESIAN_POINT ( 'NONE',  ( 0.0000000000000000000, 0.0000000000000000000, 0.0000000000000000000 ) ) ;
#226 =( GEOMETRIC_REPRESENTATION_CONTEXT ( 3 ) GLOBAL_UNCERTAINTY_ASSIGNED_CONTEXT ( ( #207 ) ) GLOBAL_UNIT_ASSIGNED_CONTEXT ( ( #233, #223, #222 ) ) REPRESENTATION_CONTEXT ( 'NONE', 'WORKASPACE' ) );
#227 = AXIS2_PLACEMENT_3D ( 'NONE', #193, #238, #237 ) ;
#228 =( NAMED_UNIT ( * ) PLANE_ANGLE_UNIT ( ) SI_UNIT ( $, .RADIAN. ) );
#229 = CARTESIAN_POINT ( 'NONE',  ( 0.0000000000000000000, 0.0000000000000000000, -62.74999999999998600 ) ) ;
#230 = PRESENTATION_LAYER_ASSIGNMENT (  '', '', ( #232 ) ) ;
#231 =( NAMED_UNIT ( * ) PLANE_ANGLE_UNIT ( ) SI_UNIT ( $, .RADIAN. ) );
#232 = STYLED_ITEM ( 'NONE', ( #197 ), #81 ) ;
#233 =( LENGTH_UNIT ( ) NAMED_UNIT ( * ) SI_UNIT ( .MILLI., .METRE. ) );
#234 = MECHANICAL_DESIGN_GEOMETRIC_PRESENTATION_REPRESENTATION (  '', ( #173 ), #226 ) ;
#235 = PRESENTATION_LAYER_ASSIGNMENT (  '', '', ( #173 ) ) ;
#236 = SURFACE_STYLE_FILL_AREA ( #183 ) ;
#237 = DIRECTION ( 'NONE',  ( 1.000000000000000000, 0.0000000000000000000, 0.0000000000000000000 ) ) ;
#238 = DIRECTION ( 'NONE',  ( -0.0000000000000000000, -0.0000000000000000000, 1.000000000000000000 ) ) ;
#239 = UNCERTAINTY_MEASURE_WITH_UNIT (LENGTH_MEASURE( 1.000000000000000100E-005 ), #169, 'distance_accuracy_value', 'NONE');
#240 =( NAMED_UNIT ( * ) SI_UNIT ( $, .STERADIAN. ) SOLID_ANGLE_UNIT ( ) );
#241 = ADVANCED_BREP_SHAPE_REPRESENTATION ( '4436-E0W', ( #25, #203 ), #242 ) ;
#242 =( GEOMETRIC_REPRESENTATION_CONTEXT ( 3 ) GLOBAL_UNCERTAINTY_ASSIGNED_CONTEXT ( ( #247 ) ) GLOBAL_UNIT_ASSIGNED_CONTEXT ( ( #182, #231, #248 ) ) REPRESENTATION_CONTEXT ( 'NONE', 'WORKASPACE' ) );
#243 = DIRECTION ( 'NONE',  ( -0.0000000000000000000, -0.0000000000000000000, 1.000000000000000000 ) ) ;
#244 = CARTESIAN_POINT ( 'NONE',  ( 12.69999999999999900, 0.0000000000000000000, 4.308132045400366600 ) ) ;
#245 = FILL_AREA_STYLE ('',( #215 ) ) ;
#246 = AXIS2_PLACEMENT_3D ( 'NONE', #229, #200, #198 ) ;
#247 = UNCERTAINTY_MEASURE_WITH_UNIT (LENGTH_MEASURE( 1.000000000000000100E-005 ), #182, 'distance_accuracy_value', 'NONE');
#248 =( NAMED_UNIT ( * ) SI_UNIT ( $, .STERADIAN. ) SOLID_ANGLE_UNIT ( ) );
#249 = CIRCLE ( 'NONE', #246, 64.37999999999998100 ) ;
#250 = PRODUCT_DEFINITION_CONTEXT ( 'detailed design', #258, 'design' ) ;
#251 = APPLICATION_PROTOCOL_DEFINITION ( 'draft international standard', 'automotive_design', 1998, #258 ) ;
#252 = PRODUCT_DEFINITION_SHAPE ( 'NONE', 'NONE',  #255 ) ;
#253 = PRODUCT_RELATED_PRODUCT_CATEGORY ( 'part', '', ( #260 ) ) ;
#254 = PRODUCT_DEFINITION_FORMATION_WITH_SPECIFIED_SOURCE ( 'ANY', '', #260, .NOT_KNOWN. ) ;
#255 = PRODUCT_DEFINITION ( 'UNKNOWN', '', #254, #250 ) ;
#256 = PRODUCT_CONTEXT ( 'NONE', #259, 'mechanical' ) ;
#257 = APPLICATION_PROTOCOL_DEFINITION ( 'draft international standard', 'automotive_design', 1998, #259 ) ;
#258 = APPLICATION_CONTEXT ( 'automotive_design' ) ;
#259 = APPLICATION_CONTEXT ( 'automotive_design' ) ;
#260 = PRODUCT ( '4436-E0W', '4436-E0W', '', ( #256 ) ) ;
#261 = SHAPE_DEFINITION_REPRESENTATION ( #252, #241 ) ;
ENDSEC;
END-ISO-10303-21;
