ISO-10303-21;
HEADER;
FILE_DESCRIPTION (( 'STEP AP203' ),
    '1' );
FILE_NAME ('TTN098125-E0W.STEP',
    '2019-12-09T20:53:56',
    ( '' ),
    ( '' ),
    'SwSTEP 2.0',
    'SolidWorks 2018',
    '' );
FILE_SCHEMA (( 'CONFIG_CONTROL_DESIGN' ));
ENDSEC;

DATA;
#1 = UNCERTAINTY_MEASURE_WITH_UNIT (LENGTH_MEASURE( 1.000000000000000082E-05 ), #277, 'distance_accuracy_value', 'NONE');
#2 = VERTEX_POINT ( 'NONE', #144 ) ;
#3 = EDGE_LOOP ( 'NONE', ( #110, #255, #343, #253, #44, #74 ) ) ;
#4 = ORIENTED_EDGE ( 'NONE', *, *, #350, .F. ) ;
#5 = ORGANIZATION ( 'UNSPECIFIED', 'UNSPECIFIED', '' ) ;
#6 = ORIENTED_EDGE ( 'NONE', *, *, #282, .T. ) ;
#7 = ORIENTED_EDGE ( 'NONE', *, *, #238, .F. ) ;
#8 = AXIS2_PLACEMENT_3D ( 'NONE', #96, #317, #151 ) ;
#9 = VERTEX_POINT ( 'NONE', #168 ) ;
#10 =( GEOMETRIC_REPRESENTATION_CONTEXT ( 3 ) GLOBAL_UNCERTAINTY_ASSIGNED_CONTEXT ( ( #1 ) ) GLOBAL_UNIT_ASSIGNED_CONTEXT ( ( #277, #54, #301 ) ) REPRESENTATION_CONTEXT ( 'NONE', 'WORKASPACE' ) );
#11 = CONICAL_SURFACE ( 'NONE', #324, 12.69999999999999929, 0.7853981633974504994 ) ;
#12 = CARTESIAN_POINT ( 'NONE',  ( 1.555301434917138433E-15, -12.69999999999999929, -1.800000000000000044 ) ) ;
#13 = AXIS2_PLACEMENT_3D ( 'NONE', #70, #71, #348 ) ;
#14 = SPHERICAL_SURFACE ( 'NONE', #164, 280.5000000000000568 ) ;
#15 = CARTESIAN_POINT ( 'NONE',  ( 12.49999999999999645, 1.530808498934191127E-15, 1.721341085935024218 ) ) ;
#16 = PERSON_AND_ORGANIZATION ( #229, #5 ) ;
#17 = DIRECTION ( 'NONE',  ( -0.0000000000000000000, -0.0000000000000000000, -1.000000000000000000 ) ) ;
#18 = CARTESIAN_POINT ( 'NONE',  ( 0.0000000000000000000, 0.0000000000000000000, -1.800000000000000044 ) ) ;
#19 = FACE_OUTER_BOUND ( 'NONE', #245, .T. ) ;
#20 = DIRECTION ( 'NONE',  ( -0.0000000000000000000, -0.0000000000000000000, -1.000000000000000000 ) ) ;
#21 = DIRECTION ( 'NONE',  ( 0.0000000000000000000, 0.0000000000000000000, 1.000000000000000000 ) ) ;
#22 = EDGE_LOOP ( 'NONE', ( #349, #6, #35, #186 ) ) ;
#23 = APPLICATION_PROTOCOL_DEFINITION ( 'international standard', 'config_control_design', 1994, #329 ) ;
#24 = EDGE_CURVE ( 'NONE', #347, #167, #249, .T. ) ;
#25 = DATE_TIME_ROLE ( 'classification_date' ) ;
#26 = CONICAL_SURFACE ( 'NONE', #287, 12.49999999999999645, 0.7853981633974580490 ) ;
#27 = EDGE_CURVE ( 'NONE', #252, #338, #304, .T. ) ;
#28 = PRODUCT ( 'TTN098125-E0W', 'TTN098125-E0W', '', ( #161 ) ) ;
#29 = ORIENTED_EDGE ( 'NONE', *, *, #51, .F. ) ;
#30 = ORIENTED_EDGE ( 'NONE', *, *, #143, .T. ) ;
#31 = AXIS2_PLACEMENT_3D ( 'NONE', #315, #289, #232 ) ;
#32 = CIRCLE ( 'NONE', #149, 12.70000000000000107 ) ;
#33 = PERSON_AND_ORGANIZATION ( #229, #5 ) ;
#34 = EDGE_CURVE ( 'NONE', #338, #9, #58, .T. ) ;
#35 = ORIENTED_EDGE ( 'NONE', *, *, #217, .F. ) ;
#36 = EDGE_CURVE ( 'NONE', #167, #297, #199, .T. ) ;
#37 = DIRECTION ( 'NONE',  ( 0.7071067811865544561, 8.659560562355016675E-17, -0.7071067811865406894 ) ) ;
#38 = DIRECTION ( 'NONE',  ( 1.000000000000000000, 0.0000000000000000000, -0.0000000000000000000 ) ) ;
#39 = LINE ( 'NONE', #15, #216 ) ;
#40 = COORDINATED_UNIVERSAL_TIME_OFFSET ( 5, 0, .BEHIND. ) ;
#41 = DIRECTION ( 'NONE',  ( -1.000000000000000000, 0.0000000000000000000, 0.0000000000000000000 ) ) ;
#42 = DIRECTION ( 'NONE',  ( -1.000000000000000000, 0.0000000000000000000, 0.0000000000000000000 ) ) ;
#43 = ORIENTED_EDGE ( 'NONE', *, *, #131, .T. ) ;
#44 = ORIENTED_EDGE ( 'NONE', *, *, #219, .F. ) ;
#45 = CARTESIAN_POINT ( 'NONE',  ( -12.49999999999999645, 0.0000000000000000000, 1.721341085935024218 ) ) ;
#46 = PERSON_AND_ORGANIZATION ( #229, #5 ) ;
#47 = CC_DESIGN_APPROVAL ( #88, ( #52 ) ) ;
#48 = DIRECTION ( 'NONE',  ( 0.0000000000000000000, 0.0000000000000000000, 1.000000000000000000 ) ) ;
#49 = ORIENTED_EDGE ( 'NONE', *, *, #64, .F. ) ;
#50 = AXIS2_PLACEMENT_3D ( 'NONE', #352, #77, #268 ) ;
#51 = EDGE_CURVE ( 'NONE', #9, #347, #32, .T. ) ;
#52 = PRODUCT_DEFINITION ( 'UNKNOWN', '', #84, #166 ) ;
#53 = CIRCLE ( 'NONE', #195, 12.69999999999999929 ) ;
#54 =( NAMED_UNIT ( * ) PLANE_ANGLE_UNIT ( ) SI_UNIT ( $, .RADIAN. ) );
#55 = ORIENTED_EDGE ( 'NONE', *, *, #114, .F. ) ;
#56 = SECURITY_CLASSIFICATION_LEVEL ( 'unclassified' ) ;
#57 = AXIS2_PLACEMENT_3D ( 'NONE', #76, #125, #48 ) ;
#58 = CIRCLE ( 'NONE', #116, 12.70000000000000107 ) ;
#59 = AXIS2_PLACEMENT_3D ( 'NONE', #214, #322, #306 ) ;
#60 = ORIENTED_EDGE ( 'NONE', *, *, #90, .F. ) ;
#61 = ADVANCED_FACE ( 'NONE', ( #335 ), #234, .T. ) ;
#62 = APPROVAL_PERSON_ORGANIZATION ( #358, #88, #247 ) ;
#63 = CARTESIAN_POINT ( 'NONE',  ( 1.555301434917138433E-15, -12.69999999999999929, -2.000000000000003997 ) ) ;
#64 = EDGE_CURVE ( 'NONE', #290, #252, #328, .T. ) ;
#65 = ORIENTED_EDGE ( 'NONE', *, *, #264, .T. ) ;
#66 = MANIFOLD_SOLID_BREP ( 'TTN099101-1-solid1', #188 ) ;
#67 = APPROVAL ( #337, 'UNSPECIFIED' ) ;
#68 = CARTESIAN_POINT ( 'NONE',  ( 0.0000000000000000000, 0.0000000000000000000, 1.721341085935024218 ) ) ;
#69 = DIRECTION ( 'NONE',  ( -0.0000000000000000000, -0.0000000000000000000, -1.000000000000000000 ) ) ;
#70 = CARTESIAN_POINT ( 'NONE',  ( 0.0000000000000000000, 8.547752349680193105E-16, -2.000000000000000000 ) ) ;
#71 = DIRECTION ( 'NONE',  ( -0.0000000000000000000, 3.061515884555943146E-16, -1.000000000000000000 ) ) ;
#72 = CIRCLE ( 'NONE', #244, 12.49999999999999645 ) ;
#73 = ORIENTED_EDGE ( 'NONE', *, *, #27, .F. ) ;
#74 = ORIENTED_EDGE ( 'NONE', *, *, #36, .F. ) ;
#75 = DIRECTION ( 'NONE',  ( -0.0000000000000000000, 3.061515884555943146E-16, -1.000000000000000000 ) ) ;
#76 = CARTESIAN_POINT ( 'NONE',  ( 0.0000000000000000000, 3.398037710586334032E-14, -278.5000000000001705 ) ) ;
#77 = DIRECTION ( 'NONE',  ( -0.0000000000000000000, -0.0000000000000000000, -1.000000000000000000 ) ) ;
#78 = CC_DESIGN_DATE_AND_TIME_ASSIGNMENT ( #280, #139, ( #52 ) ) ;
#79 = ORIENTED_EDGE ( 'NONE', *, *, #24, .T. ) ;
#80 = PERSON_AND_ORGANIZATION_ROLE ( 'design_supplier' ) ;
#81 = PERSON_AND_ORGANIZATION_ROLE ( 'creator' ) ;
#82 = APPROVAL_ROLE ( '' ) ;
#83 = CIRCLE ( 'NONE', #296, 12.49999999999999645 ) ;
#84 = PRODUCT_DEFINITION_FORMATION_WITH_SPECIFIED_SOURCE ( 'ANY', '', #28, .NOT_KNOWN. ) ;
#85 = EDGE_LOOP ( 'NONE', ( #332, #210, #361, #111 ) ) ;
#86 = FACE_OUTER_BOUND ( 'NONE', #316, .T. ) ;
#87 = ADVANCED_FACE ( 'NONE', ( #86 ), #341, .T. ) ;
#88 = APPROVAL ( #356, 'UNSPECIFIED' ) ;
#89 = CIRCLE ( 'NONE', #57, 280.5000000000000568 ) ;
#90 = EDGE_CURVE ( 'NONE', #129, #9, #39, .T. ) ;
#91 = DIRECTION ( 'NONE',  ( -1.000000000000000000, 0.0000000000000000000, 0.0000000000000000000 ) ) ;
#92 = CARTESIAN_POINT ( 'NONE',  ( -12.49999999999999822, 1.543054966925664878E-15, -1.999999999999999556 ) ) ;
#93 = CC_DESIGN_APPROVAL ( #67, ( #84 ) ) ;
#94 = ORIENTED_EDGE ( 'NONE', *, *, #223, .F. ) ;
#95 = DIRECTION ( 'NONE',  ( -1.000000000000000000, 0.0000000000000000000, 0.0000000000000000000 ) ) ;
#96 = CARTESIAN_POINT ( 'NONE',  ( 0.0000000000000000000, 0.0000000000000000000, -1.800000000000000044 ) ) ;
#97 = VERTEX_POINT ( 'NONE', #201 ) ;
#98 = DIRECTION ( 'NONE',  ( 1.000000000000000000, 1.224646799147353207E-16, 3.749275628560213616E-32 ) ) ;
#99 = ADVANCED_BREP_SHAPE_REPRESENTATION ( 'TTN098125-E0W', ( #66, #100 ), #10 ) ;
#100 = AXIS2_PLACEMENT_3D ( 'NONE', #334, #248, #104 ) ;
#101 = DIRECTION ( 'NONE',  ( 0.0000000000000000000, 1.000000000000000000, 3.073328992872296367E-16 ) ) ;
#102 = CARTESIAN_POINT ( 'NONE',  ( -12.70000000000000107, 0.0000000000000000000, 1.521341085935024040 ) ) ;
#103 = FACE_OUTER_BOUND ( 'NONE', #22, .T. ) ;
#104 = DIRECTION ( 'NONE',  ( 1.000000000000000000, 0.0000000000000000000, 0.0000000000000000000 ) ) ;
#105 = CIRCLE ( 'NONE', #257, 280.5000000000000568 ) ;
#106 = LINE ( 'NONE', #157, #109 ) ;
#107 = EDGE_LOOP ( 'NONE', ( #327, #193 ) ) ;
#108 = APPROVAL_ROLE ( '' ) ;
#109 = VECTOR ( 'NONE', #243, 1000.000000000000114 ) ;
#110 = ORIENTED_EDGE ( 'NONE', *, *, #24, .F. ) ;
#111 = ORIENTED_EDGE ( 'NONE', *, *, #155, .F. ) ;
#112 = CALENDAR_DATE ( 2019, 9, 12 ) ;
#113 = CIRCLE ( 'NONE', #308, 12.69999999999999929 ) ;
#114 = EDGE_CURVE ( 'NONE', #175, #208, #311, .T. ) ;
#115 = APPROVAL_DATE_TIME ( #126, #67 ) ;
#116 = AXIS2_PLACEMENT_3D ( 'NONE', #256, #178, #95 ) ;
#117 = DIRECTION ( 'NONE',  ( -0.0000000000000000000, -0.0000000000000000000, -1.000000000000000000 ) ) ;
#118 = CARTESIAN_POINT ( 'NONE',  ( 0.0000000000000000000, 12.50000000000022560, 1.721341085935024218 ) ) ;
#119 = FACE_OUTER_BOUND ( 'NONE', #107, .T. ) ;
#120 = CARTESIAN_POINT ( 'NONE',  ( 12.49999999999999822, 0.0000000000000000000, -1.999999999999999556 ) ) ;
#121 = AXIS2_PLACEMENT_3D ( 'NONE', #148, #291, #41 ) ;
#122 = DIRECTION ( 'NONE',  ( 0.0000000000000000000, 1.000000000000000000, 3.958014348039772654E-16 ) ) ;
#123 = CC_DESIGN_PERSON_AND_ORGANIZATION_ASSIGNMENT ( #33, #80, ( #84 ) ) ;
#124 = CIRCLE ( 'NONE', #179, 12.49999999999999645 ) ;
#125 = DIRECTION ( 'NONE',  ( -1.000000000000000000, 0.0000000000000000000, 0.0000000000000000000 ) ) ;
#126 = DATE_AND_TIME ( #112, #169 ) ;
#127 = DIRECTION ( 'NONE',  ( -1.000000000000000000, 0.0000000000000000000, 0.0000000000000000000 ) ) ;
#128 = DIRECTION ( 'NONE',  ( -1.000000000000000000, 0.0000000000000000000, 0.0000000000000000000 ) ) ;
#129 = VERTEX_POINT ( 'NONE', #236 ) ;
#130 = CARTESIAN_POINT ( 'NONE',  ( 0.0000000000000000000, 3.398037710586334032E-14, -278.5000000000001705 ) ) ;
#131 = EDGE_CURVE ( 'NONE', #357, #167, #262, .T. ) ;
#132 = CIRCLE ( 'NONE', #50, 12.70000000000000107 ) ;
#133 = DIRECTION ( 'NONE',  ( -1.000000000000000000, 0.0000000000000000000, 0.0000000000000000000 ) ) ;
#134 = PERSON_AND_ORGANIZATION ( #229, #5 ) ;
#135 = CC_DESIGN_PERSON_AND_ORGANIZATION_ASSIGNMENT ( #46, #303, ( #84 ) ) ;
#136 = APPLICATION_CONTEXT ( 'configuration controlled 3d designs of mechanical parts and assemblies' ) ;
#137 = ORIENTED_EDGE ( 'NONE', *, *, #90, .T. ) ;
#138 = COORDINATED_UNIVERSAL_TIME_OFFSET ( 5, 0, .BEHIND. ) ;
#139 = DATE_TIME_ROLE ( 'creation_date' ) ;
#140 = EDGE_LOOP ( 'NONE', ( #269, #177, #137, #165, #73, #49 ) ) ;
#141 = AXIS2_PLACEMENT_3D ( 'NONE', #212, #185, #320 ) ;
#142 = LOCAL_TIME ( 15, 53, 56.00000000000000000, #312 ) ;
#143 = EDGE_CURVE ( 'NONE', #129, #2, #124, .T. ) ;
#144 = CARTESIAN_POINT ( 'NONE',  ( 1.530808498934208876E-15, -12.50000000000019185, 1.721341085935024218 ) ) ;
#145 = ORIENTED_EDGE ( 'NONE', *, *, #333, .F. ) ;
#146 = ADVANCED_FACE ( 'NONE', ( #265 ), #14, .T. ) ;
#147 = ORIENTED_EDGE ( 'NONE', *, *, #36, .T. ) ;
#148 = CARTESIAN_POINT ( 'NONE',  ( 0.0000000000000000000, 0.0000000000000000000, -1.800000000000000044 ) ) ;
#149 = AXIS2_PLACEMENT_3D ( 'NONE', #153, #203, #346 ) ;
#150 = APPROVAL ( #275, 'UNSPECIFIED' ) ;
#151 = DIRECTION ( 'NONE',  ( -1.000000000000000000, 0.0000000000000000000, 0.0000000000000000000 ) ) ;
#152 = SHAPE_DEFINITION_REPRESENTATION ( #196, #99 ) ;
#153 = CARTESIAN_POINT ( 'NONE',  ( 0.0000000000000000000, 0.0000000000000000000, 1.521341085935024040 ) ) ;
#154 = CARTESIAN_POINT ( 'NONE',  ( 0.0000000000000000000, 12.69999999999999929, -1.999999999999996225 ) ) ;
#155 = EDGE_CURVE ( 'NONE', #160, #129, #72, .T. ) ;
#156 = DIRECTION ( 'NONE',  ( -1.224646799147353207E-16, 1.000000000000000000, 0.0000000000000000000 ) ) ;
#157 = CARTESIAN_POINT ( 'NONE',  ( 12.69999999999999929, 0.0000000000000000000, -1.800000000000000044 ) ) ;
#158 = DIRECTION ( 'NONE',  ( -1.000000000000000000, 0.0000000000000000000, 0.0000000000000000000 ) ) ;
#159 = AXIS2_PLACEMENT_3D ( 'NONE', #206, #117, #42 ) ;
#160 = VERTEX_POINT ( 'NONE', #118 ) ;
#161 = MECHANICAL_CONTEXT ( 'NONE', #136, 'mechanical' ) ;
#162 = CARTESIAN_POINT ( 'NONE',  ( 12.69999999999999929, 0.0000000000000000000, -1.800000000000000044 ) ) ;
#163 = FACE_OUTER_BOUND ( 'NONE', #182, .T. ) ;
#164 = AXIS2_PLACEMENT_3D ( 'NONE', #261, #38, #122 ) ;
#165 = ORIENTED_EDGE ( 'NONE', *, *, #34, .F. ) ;
#166 = DESIGN_CONTEXT ( 'detailed design', #329, 'design' ) ;
#167 = VERTEX_POINT ( 'NONE', #12 ) ;
#168 = CARTESIAN_POINT ( 'NONE',  ( 12.70000000000000107, 1.555301434917138630E-15, 1.521341085935024040 ) ) ;
#169 = LOCAL_TIME ( 15, 53, 56.00000000000000000, #235 ) ;
#170 = ADVANCED_FACE ( 'NONE', ( #190 ), #26, .T. ) ;
#171 = FACE_OUTER_BOUND ( 'NONE', #339, .T. ) ;
#172 = DATE_AND_TIME ( #183, #142 ) ;
#173 = DIRECTION ( 'NONE',  ( -1.000000000000000000, 0.0000000000000000000, 0.0000000000000000000 ) ) ;
#174 = CC_DESIGN_APPROVAL ( #150, ( #278 ) ) ;
#175 = VERTEX_POINT ( 'NONE', #92 ) ;
#176 = DIRECTION ( 'NONE',  ( -0.0000000000000000000, -0.0000000000000000000, -1.000000000000000000 ) ) ;
#177 = ORIENTED_EDGE ( 'NONE', *, *, #155, .T. ) ;
#178 = DIRECTION ( 'NONE',  ( -0.0000000000000000000, -0.0000000000000000000, -1.000000000000000000 ) ) ;
#179 = AXIS2_PLACEMENT_3D ( 'NONE', #314, #344, #173 ) ;
#180 = LOCAL_TIME ( 15, 53, 56.00000000000000000, #259 ) ;
#181 = CARTESIAN_POINT ( 'NONE',  ( -12.49999999999999645, 0.0000000000000000000, 1.721341085935024218 ) ) ;
#182 = EDGE_LOOP ( 'NONE', ( #273, #263, #79, #197, #94, #224 ) ) ;
#183 = CALENDAR_DATE ( 2019, 9, 12 ) ;
#184 = DIRECTION ( 'NONE',  ( -0.0000000000000000000, -0.0000000000000000000, -1.000000000000000000 ) ) ;
#185 = DIRECTION ( 'NONE',  ( -0.0000000000000000000, 3.061515884555943146E-16, -1.000000000000000000 ) ) ;
#186 = ORIENTED_EDGE ( 'NONE', *, *, #264, .F. ) ;
#187 = CARTESIAN_POINT ( 'NONE',  ( 0.0000000000000000000, 0.0000000000000000000, -1.800000000000000044 ) ) ;
#188 = CLOSED_SHELL ( 'NONE', ( #146, #170, #198, #254, #61, #286, #281, #87, #340 ) ) ;
#189 = AXIS2_PLACEMENT_3D ( 'NONE', #266, #300, #127 ) ;
#190 = FACE_OUTER_BOUND ( 'NONE', #140, .T. ) ;
#191 = LOCAL_TIME ( 15, 53, 56.00000000000000000, #138 ) ;
#192 = ORIENTED_EDGE ( 'NONE', *, *, #64, .T. ) ;
#193 = ORIENTED_EDGE ( 'NONE', *, *, #114, .T. ) ;
#194 = CALENDAR_DATE ( 2019, 9, 12 ) ;
#195 = AXIS2_PLACEMENT_3D ( 'NONE', #213, #184, #133 ) ;
#196 = PRODUCT_DEFINITION_SHAPE ( 'NONE', 'NONE',  #52 ) ;
#197 = ORIENTED_EDGE ( 'NONE', *, *, #131, .F. ) ;
#198 = ADVANCED_FACE ( 'NONE', ( #171 ), #241, .T. ) ;
#199 = CIRCLE ( 'NONE', #8, 12.69999999999999929 ) ;
#200 = APPROVAL_PERSON_ORGANIZATION ( #250, #67, #108 ) ;
#201 = CARTESIAN_POINT ( 'NONE',  ( 0.0000000000000000000, 12.69999999999999929, -1.800000000000000044 ) ) ;
#202 = APPROVAL_DATE_TIME ( #172, #150 ) ;
#203 = DIRECTION ( 'NONE',  ( -0.0000000000000000000, -0.0000000000000000000, -1.000000000000000000 ) ) ;
#204 = EDGE_CURVE ( 'NONE', #283, #2, #105, .T. ) ;
#205 = CARTESIAN_POINT ( 'NONE',  ( 0.0000000000000000000, 0.0000000000000000000, 1.721341085935024218 ) ) ;
#206 = CARTESIAN_POINT ( 'NONE',  ( 0.0000000000000000000, 0.0000000000000000000, -1.999999999999999556 ) ) ;
#207 = ORIENTED_EDGE ( 'NONE', *, *, #219, .T. ) ;
#208 = VERTEX_POINT ( 'NONE', #120 ) ;
#209 = LINE ( 'NONE', #251, #284 ) ;
#210 = ORIENTED_EDGE ( 'NONE', *, *, #204, .T. ) ;
#211 = CARTESIAN_POINT ( 'NONE',  ( 0.0000000000000000000, 8.547752349680193105E-16, -2.000000000000000000 ) ) ;
#212 = CARTESIAN_POINT ( 'NONE',  ( 0.0000000000000000000, 8.547752349680199021E-16, -2.000000000000001776 ) ) ;
#213 = CARTESIAN_POINT ( 'NONE',  ( 0.0000000000000000000, 0.0000000000000000000, -1.800000000000000044 ) ) ;
#214 = CARTESIAN_POINT ( 'NONE',  ( 0.0000000000000000000, 3.398037710586334032E-14, -278.5000000000001705 ) ) ;
#215 = ORIENTED_EDGE ( 'NONE', *, *, #350, .T. ) ;
#216 = VECTOR ( 'NONE', #37, 1000.000000000000114 ) ;
#217 = EDGE_CURVE ( 'NONE', #290, #160, #345, .T. ) ;
#218 = PERSON_AND_ORGANIZATION ( #229, #5 ) ;
#219 = EDGE_CURVE ( 'NONE', #297, #97, #53, .T. ) ;
#220 = PERSON_AND_ORGANIZATION_ROLE ( 'classification_officer' ) ;
#221 = CARTESIAN_POINT ( 'NONE',  ( 1.555301434917138827E-15, -12.70000000000000284, 1.521341085935024040 ) ) ;
#222 = CC_DESIGN_DATE_AND_TIME_ASSIGNMENT ( #246, #25, ( #278 ) ) ;
#223 = EDGE_CURVE ( 'NONE', #97, #357, #113, .T. ) ;
#224 = ORIENTED_EDGE ( 'NONE', *, *, #230, .F. ) ;
#225 = CC_DESIGN_PERSON_AND_ORGANIZATION_ASSIGNMENT ( #16, #81, ( #52 ) ) ;
#226 = VECTOR ( 'NONE', #237, 1000.000000000000114 ) ;
#227 = APPROVAL_PERSON_ORGANIZATION ( #218, #150, #82 ) ;
#228 = DIRECTION ( 'NONE',  ( -1.000000000000000000, 0.0000000000000000000, 0.0000000000000000000 ) ) ;
#229 = PERSON ( 'UNSPECIFIED', 'UNSPECIFIED', 'UNSPECIFIED', ('UNSPECIFIED'), ('UNSPECIFIED'), ('UNSPECIFIED') ) ;
#230 = EDGE_CURVE ( 'NONE', #338, #97, #258, .T. ) ;
#231 = CARTESIAN_POINT ( 'NONE',  ( 0.0000000000000000000, 0.0000000000000000000, 1.721341085935024218 ) ) ;
#232 = DIRECTION ( 'NONE',  ( 1.000000000000000000, 0.0000000000000000000, 0.0000000000000000000 ) ) ;
#233 = AXIS2_PLACEMENT_3D ( 'NONE', #205, #17, #294 ) ;
#234 = CYLINDRICAL_SURFACE ( 'NONE', #13, 12.69999999999999929 ) ;
#235 = COORDINATED_UNIVERSAL_TIME_OFFSET ( 5, 0, .BEHIND. ) ;
#236 = CARTESIAN_POINT ( 'NONE',  ( 12.49999999999999645, 1.543054966925665076E-15, 1.721341085935024218 ) ) ;
#237 = DIRECTION ( 'NONE',  ( -0.7071067811865544561, 0.0000000000000000000, -0.7071067811865406894 ) ) ;
#238 = EDGE_CURVE ( 'NONE', #347, #252, #132, .T. ) ;
#239 = CARTESIAN_POINT ( 'NONE',  ( -12.69999999999999929, 1.555301434917138433E-15, -1.800000000000000044 ) ) ;
#240 = PRODUCT_RELATED_PRODUCT_CATEGORY ( 'detail', '', ( #28 ) ) ;
#241 = CONICAL_SURFACE ( 'NONE', #31, 12.69999999999999929, 0.7853981633974504994 ) ;
#242 = CARTESIAN_POINT ( 'NONE',  ( 0.0000000000000000000, 0.0000000000000000000, 1.721341085935024218 ) ) ;
#243 = DIRECTION ( 'NONE',  ( 0.7071067811865490160, 0.0000000000000000000, 0.7071067811865460184 ) ) ;
#244 = AXIS2_PLACEMENT_3D ( 'NONE', #68, #176, #91 ) ;
#245 = EDGE_LOOP ( 'NONE', ( #302, #145, #215, #43, #147 ) ) ;
#246 = DATE_AND_TIME ( #305, #180 ) ;
#247 = APPROVAL_ROLE ( '' ) ;
#248 = DIRECTION ( 'NONE',  ( 0.0000000000000000000, 0.0000000000000000000, 1.000000000000000000 ) ) ;
#249 = LINE ( 'NONE', #63, #321 ) ;
#250 = PERSON_AND_ORGANIZATION ( #229, #5 ) ;
#251 = CARTESIAN_POINT ( 'NONE',  ( -12.69999999999999929, 1.555301434917138433E-15, -1.800000000000000044 ) ) ;
#252 = VERTEX_POINT ( 'NONE', #102 ) ;
#253 = ORIENTED_EDGE ( 'NONE', *, *, #230, .T. ) ;
#254 = ADVANCED_FACE ( 'NONE', ( #163 ), #307, .T. ) ;
#255 = ORIENTED_EDGE ( 'NONE', *, *, #238, .T. ) ;
#256 = CARTESIAN_POINT ( 'NONE',  ( 0.0000000000000000000, 0.0000000000000000000, 1.521341085935024040 ) ) ;
#257 = AXIS2_PLACEMENT_3D ( 'NONE', #130, #98, #156 ) ;
#258 = LINE ( 'NONE', #154, #313 ) ;
#259 = COORDINATED_UNIVERSAL_TIME_OFFSET ( 5, 0, .BEHIND. ) ;
#260 = DIRECTION ( 'NONE',  ( -0.0000000000000000000, 3.061515884555943146E-16, -1.000000000000000000 ) ) ;
#261 = CARTESIAN_POINT ( 'NONE',  ( 0.0000000000000000000, 3.398037710586334032E-14, -278.5000000000001705 ) ) ;
#262 = CIRCLE ( 'NONE', #121, 12.69999999999999929 ) ;
#263 = ORIENTED_EDGE ( 'NONE', *, *, #51, .T. ) ;
#264 = EDGE_CURVE ( 'NONE', #2, #290, #83, .T. ) ;
#265 = FACE_OUTER_BOUND ( 'NONE', #85, .T. ) ;
#266 = CARTESIAN_POINT ( 'NONE',  ( 0.0000000000000000000, 0.0000000000000000000, -1.999999999999999556 ) ) ;
#267 = DIRECTION ( 'NONE',  ( -1.000000000000000000, 0.0000000000000000000, 0.0000000000000000000 ) ) ;
#268 = DIRECTION ( 'NONE',  ( -1.000000000000000000, 0.0000000000000000000, 0.0000000000000000000 ) ) ;
#269 = ORIENTED_EDGE ( 'NONE', *, *, #217, .T. ) ;
#270 = CALENDAR_DATE ( 2019, 9, 12 ) ;
#271 = DIRECTION ( 'NONE',  ( -0.0000000000000000000, 3.061515884555943146E-16, -1.000000000000000000 ) ) ;
#272 = AXIS2_PLACEMENT_3D ( 'NONE', #288, #310, #228 ) ;
#273 = ORIENTED_EDGE ( 'NONE', *, *, #34, .T. ) ;
#274 = AXIS2_PLACEMENT_3D ( 'NONE', #211, #271, #101 ) ;
#275 = APPROVAL_STATUS ( 'not_yet_approved' ) ;
#276 = LOCAL_TIME ( 15, 53, 56.00000000000000000, #40 ) ;
#277 =( LENGTH_UNIT ( ) NAMED_UNIT ( * ) SI_UNIT ( .MILLI., .METRE. ) );
#278 = SECURITY_CLASSIFICATION ( '', '', #56 ) ;
#279 = AXIS2_PLACEMENT_3D ( 'NONE', #242, #20, #128 ) ;
#280 = DATE_AND_TIME ( #194, #191 ) ;
#281 = ADVANCED_FACE ( 'NONE', ( #119 ), #299, .T. ) ;
#282 = EDGE_CURVE ( 'NONE', #283, #160, #89, .T. ) ;
#283 = VERTEX_POINT ( 'NONE', #354 ) ;
#284 = VECTOR ( 'NONE', #330, 1000.000000000000114 ) ;
#285 = ORIENTED_EDGE ( 'NONE', *, *, #359, .T. ) ;
#286 = ADVANCED_FACE ( 'NONE', ( #19 ), #11, .T. ) ;
#287 = AXIS2_PLACEMENT_3D ( 'NONE', #231, #69, #319 ) ;
#288 = CARTESIAN_POINT ( 'NONE',  ( 0.0000000000000000000, 0.0000000000000000000, 1.521341085935024040 ) ) ;
#289 = DIRECTION ( 'NONE',  ( 0.0000000000000000000, 0.0000000000000000000, 1.000000000000000000 ) ) ;
#290 = VERTEX_POINT ( 'NONE', #45 ) ;
#291 = DIRECTION ( 'NONE',  ( -0.0000000000000000000, -0.0000000000000000000, -1.000000000000000000 ) ) ;
#292 = SPHERICAL_SURFACE ( 'NONE', #59, 280.5000000000000568 ) ;
#293 = ORIENTED_EDGE ( 'NONE', *, *, #223, .T. ) ;
#294 = DIRECTION ( 'NONE',  ( -1.000000000000000000, 0.0000000000000000000, 0.0000000000000000000 ) ) ;
#295 = DIRECTION ( 'NONE',  ( -0.0000000000000000000, -0.0000000000000000000, -1.000000000000000000 ) ) ;
#296 = AXIS2_PLACEMENT_3D ( 'NONE', #326, #295, #158 ) ;
#297 = VERTEX_POINT ( 'NONE', #239 ) ;
#298 = CIRCLE ( 'NONE', #189, 12.49999999999999822 ) ;
#299 = PLANE ( 'NONE',  #141 ) ;
#300 = DIRECTION ( 'NONE',  ( -0.0000000000000000000, -0.0000000000000000000, -1.000000000000000000 ) ) ;
#301 =( NAMED_UNIT ( * ) SI_UNIT ( $, .STERADIAN. ) SOLID_ANGLE_UNIT ( ) );
#302 = ORIENTED_EDGE ( 'NONE', *, *, #359, .F. ) ;
#303 = PERSON_AND_ORGANIZATION_ROLE ( 'creator' ) ;
#304 = CIRCLE ( 'NONE', #272, 12.70000000000000107 ) ;
#305 = CALENDAR_DATE ( 2019, 9, 12 ) ;
#306 = DIRECTION ( 'NONE',  ( 0.0000000000000000000, 1.000000000000000000, 3.958014348039772654E-16 ) ) ;
#307 = CYLINDRICAL_SURFACE ( 'NONE', #274, 12.69999999999999929 ) ;
#308 = AXIS2_PLACEMENT_3D ( 'NONE', #18, #351, #267 ) ;
#309 = CC_DESIGN_PERSON_AND_ORGANIZATION_ASSIGNMENT ( #134, #331, ( #28 ) ) ;
#310 = DIRECTION ( 'NONE',  ( -0.0000000000000000000, -0.0000000000000000000, -1.000000000000000000 ) ) ;
#311 = CIRCLE ( 'NONE', #159, 12.49999999999999822 ) ;
#312 = COORDINATED_UNIVERSAL_TIME_OFFSET ( 5, 0, .BEHIND. ) ;
#313 = VECTOR ( 'NONE', #75, 1000.000000000000000 ) ;
#314 = CARTESIAN_POINT ( 'NONE',  ( 0.0000000000000000000, 0.0000000000000000000, 1.721341085935024218 ) ) ;
#315 = CARTESIAN_POINT ( 'NONE',  ( 0.0000000000000000000, 0.0000000000000000000, -1.800000000000000044 ) ) ;
#316 = EDGE_LOOP ( 'NONE', ( #60, #30, #65, #192, #7, #29 ) ) ;
#317 = DIRECTION ( 'NONE',  ( -0.0000000000000000000, -0.0000000000000000000, -1.000000000000000000 ) ) ;
#318 = CC_DESIGN_PERSON_AND_ORGANIZATION_ASSIGNMENT ( #336, #220, ( #278 ) ) ;
#319 = DIRECTION ( 'NONE',  ( -1.000000000000000000, 0.0000000000000000000, 0.0000000000000000000 ) ) ;
#320 = DIRECTION ( 'NONE',  ( 0.0000000000000000000, 1.000000000000000000, 3.061515884555943146E-16 ) ) ;
#321 = VECTOR ( 'NONE', #260, 1000.000000000000000 ) ;
#322 = DIRECTION ( 'NONE',  ( 1.000000000000000000, 0.0000000000000000000, -0.0000000000000000000 ) ) ;
#323 = DIRECTION ( 'NONE',  ( 1.000000000000000000, 0.0000000000000000000, 0.0000000000000000000 ) ) ;
#324 = AXIS2_PLACEMENT_3D ( 'NONE', #187, #21, #323 ) ;
#325 = CARTESIAN_POINT ( 'NONE',  ( 0.0000000000000000000, 12.70000000000000284, 1.521341085935024040 ) ) ;
#326 = CARTESIAN_POINT ( 'NONE',  ( 0.0000000000000000000, 0.0000000000000000000, 1.721341085935024218 ) ) ;
#327 = ORIENTED_EDGE ( 'NONE', *, *, #333, .T. ) ;
#328 = LINE ( 'NONE', #181, #226 ) ;
#329 = APPLICATION_CONTEXT ( 'configuration controlled 3d designs of mechanical parts and assemblies' ) ;
#330 = DIRECTION ( 'NONE',  ( -0.7071067811865490160, 8.659560562354952580E-17, 0.7071067811865460184 ) ) ;
#331 = PERSON_AND_ORGANIZATION_ROLE ( 'design_owner' ) ;
#332 = ORIENTED_EDGE ( 'NONE', *, *, #282, .F. ) ;
#333 = EDGE_CURVE ( 'NONE', #208, #175, #298, .T. ) ;
#334 = CARTESIAN_POINT ( 'NONE',  ( 0.0000000000000000000, 0.0000000000000000000, 0.0000000000000000000 ) ) ;
#335 = FACE_OUTER_BOUND ( 'NONE', #3, .T. ) ;
#336 = PERSON_AND_ORGANIZATION ( #229, #5 ) ;
#337 = APPROVAL_STATUS ( 'not_yet_approved' ) ;
#338 = VERTEX_POINT ( 'NONE', #325 ) ;
#339 = EDGE_LOOP ( 'NONE', ( #55, #285, #207, #293, #4 ) ) ;
#340 = ADVANCED_FACE ( 'NONE', ( #103 ), #292, .T. ) ;
#341 = CONICAL_SURFACE ( 'NONE', #233, 12.49999999999999645, 0.7853981633974580490 ) ;
#342 = DATE_AND_TIME ( #270, #276 ) ;
#343 = ORIENTED_EDGE ( 'NONE', *, *, #27, .T. ) ;
#344 = DIRECTION ( 'NONE',  ( -0.0000000000000000000, -0.0000000000000000000, -1.000000000000000000 ) ) ;
#345 = CIRCLE ( 'NONE', #279, 12.49999999999999645 ) ;
#346 = DIRECTION ( 'NONE',  ( -1.000000000000000000, 0.0000000000000000000, 0.0000000000000000000 ) ) ;
#347 = VERTEX_POINT ( 'NONE', #221 ) ;
#348 = DIRECTION ( 'NONE',  ( 0.0000000000000000000, 1.000000000000000000, 3.073328992872296367E-16 ) ) ;
#349 = ORIENTED_EDGE ( 'NONE', *, *, #204, .F. ) ;
#350 = EDGE_CURVE ( 'NONE', #208, #357, #106, .T. ) ;
#351 = DIRECTION ( 'NONE',  ( -0.0000000000000000000, -0.0000000000000000000, -1.000000000000000000 ) ) ;
#352 = CARTESIAN_POINT ( 'NONE',  ( 0.0000000000000000000, 0.0000000000000000000, 1.521341085935024040 ) ) ;
#353 = APPROVAL_DATE_TIME ( #342, #88 ) ;
#354 = CARTESIAN_POINT ( 'NONE',  ( 0.0000000000000000000, -3.471947209788925408E-14, 1.999999999999890754 ) ) ;
#355 = CC_DESIGN_SECURITY_CLASSIFICATION ( #278, ( #84 ) ) ;
#356 = APPROVAL_STATUS ( 'not_yet_approved' ) ;
#357 = VERTEX_POINT ( 'NONE', #162 ) ;
#358 = PERSON_AND_ORGANIZATION ( #229, #5 ) ;
#359 = EDGE_CURVE ( 'NONE', #175, #297, #209, .T. ) ;
#360 = APPLICATION_PROTOCOL_DEFINITION ( 'international standard', 'config_control_design', 1994, #136 ) ;
#361 = ORIENTED_EDGE ( 'NONE', *, *, #143, .F. ) ;
ENDSEC;
END-ISO-10303-21;
