ISO-10303-21;
HEADER;
FILE_DESCRIPTION (( 'STEP AP203' ),
    '1' );
FILE_NAME ('Web Model 68524.STEP',
    '2017-02-01T13:27:35',
    ( '' ),
    ( '' ),
    'SwSTEP 2.0',
    'SolidWorks 2016',
    '' );
FILE_SCHEMA (( 'CONFIG_CONTROL_DESIGN' ));
ENDSEC;

DATA;
#1 = APPROVAL_PERSON_ORGANIZATION ( #48, #32, #83 ) ;
#2 = FACE_OUTER_BOUND ( 'NONE', #54, .T. ) ;
#3 = EDGE_CURVE ( 'NONE', #157, #31, #165, .T. ) ;
#4 = DIRECTION ( 'NONE',  ( 0.0000000000000000000, 1.000000000000000000, 0.0000000000000000000 ) ) ;
#5 = DESIGN_CONTEXT ( 'detailed design', #173, 'design' ) ;
#6 = PERSON_AND_ORGANIZATION ( #107, #69 ) ;
#7 = DIRECTION ( 'NONE',  ( 0.0000000000000000000, 1.000000000000000000, 0.0000000000000000000 ) ) ;
#8 = DIRECTION ( 'NONE',  ( 0.0000000000000000000, 1.000000000000000000, 0.0000000000000000000 ) ) ;
#9 = CC_DESIGN_APPROVAL ( #32, ( #13 ) ) ;
#10 = CARTESIAN_POINT ( 'NONE',  ( 0.0000000000000000000, 1.000000000000000000, 0.0000000000000000000 ) ) ;
#11 = CIRCLE ( 'NONE', #87, 12.50000000000000000 ) ;
#12 = DATE_TIME_ROLE ( 'creation_date' ) ;
#13 = SECURITY_CLASSIFICATION ( '', '', #84 ) ;
#14 = PERSON_AND_ORGANIZATION_ROLE ( 'creator' ) ;
#15 = PERSON_AND_ORGANIZATION ( #107, #69 ) ;
#16 = CC_DESIGN_APPROVAL ( #33, ( #140 ) ) ;
#17 = DATE_AND_TIME ( #61, #29 ) ;
#18 = EDGE_LOOP ( 'NONE', ( #161, #60, #73, #37 ) ) ;
#19 = CC_DESIGN_DATE_AND_TIME_ASSIGNMENT ( #120, #59, ( #13 ) ) ;
#20 = VERTEX_POINT ( 'NONE', #112 ) ;
#21 = PERSON_AND_ORGANIZATION ( #107, #69 ) ;
#22 = FACE_OUTER_BOUND ( 'NONE', #154, .T. ) ;
#23 = CARTESIAN_POINT ( 'NONE',  ( 1.530808498934191500E-015, 1.000000000000000000, 12.50000000000000000 ) ) ;
#24 = PLANE ( 'NONE',  #119 ) ;
#25 = DIRECTION ( 'NONE',  ( 0.0000000000000000000, 0.0000000000000000000, 1.000000000000000000 ) ) ;
#26 = DIRECTION ( 'NONE',  ( -0.0000000000000000000, -1.000000000000000000, -0.0000000000000000000 ) ) ;
#27 = DIRECTION ( 'NONE',  ( 1.000000000000000000, 0.0000000000000000000, 0.0000000000000000000 ) ) ;
#28 = APPROVAL_DATE_TIME ( #156, #92 ) ;
#29 = LOCAL_TIME ( 8, 27, 35.00000000000000000, #41 ) ;
#30 = CC_DESIGN_PERSON_AND_ORGANIZATION_ASSIGNMENT ( #34, #82, ( #100 ) ) ;
#31 = VERTEX_POINT ( 'NONE', #159 ) ;
#32 = APPROVAL ( #175, 'UNSPECIFIED' ) ;
#33 = APPROVAL ( #43, 'UNSPECIFIED' ) ;
#34 = PERSON_AND_ORGANIZATION ( #107, #69 ) ;
#35 = DATE_AND_TIME ( #136, #169 ) ;
#36 = FACE_OUTER_BOUND ( 'NONE', #96, .T. ) ;
#37 = ORIENTED_EDGE ( 'NONE', *, *, #3, .T. ) ;
#38 = CC_DESIGN_SECURITY_CLASSIFICATION ( #13, ( #140 ) ) ;
#39 = CARTESIAN_POINT ( 'NONE',  ( 0.0000000000000000000, 1.000000000000000000, -12.50000000000000000 ) ) ;
#40 = DIRECTION ( 'NONE',  ( 0.0000000000000000000, 0.0000000000000000000, 1.000000000000000000 ) ) ;
#41 = COORDINATED_UNIVERSAL_TIME_OFFSET ( 5, 0, .BEHIND. ) ;
#42 =( GEOMETRIC_REPRESENTATION_CONTEXT ( 3 ) GLOBAL_UNCERTAINTY_ASSIGNED_CONTEXT ( ( #122 ) ) GLOBAL_UNIT_ASSIGNED_CONTEXT ( ( #141, #58, #138 ) ) REPRESENTATION_CONTEXT ( 'NONE', 'WORKASPACE' ) );
#43 = APPROVAL_STATUS ( 'not_yet_approved' ) ;
#44 = CALENDAR_DATE ( 2017, 1, 2 ) ;
#45 = LOCAL_TIME ( 8, 27, 35.00000000000000000, #50 ) ;
#46 = AXIS2_PLACEMENT_3D ( 'NONE', #162, #8, #172 ) ;
#47 = ADVANCED_BREP_SHAPE_REPRESENTATION ( 'Web Model 68524', ( #104, #168 ), #42 ) ;
#48 = PERSON_AND_ORGANIZATION ( #107, #69 ) ;
#49 = ORIENTED_EDGE ( 'NONE', *, *, #89, .F. ) ;
#50 = COORDINATED_UNIVERSAL_TIME_OFFSET ( 5, 0, .BEHIND. ) ;
#51 = CALENDAR_DATE ( 2017, 1, 2 ) ;
#52 = FACE_OUTER_BOUND ( 'NONE', #18, .T. ) ;
#53 = AXIS2_PLACEMENT_3D ( 'NONE', #55, #7, #64 ) ;
#54 = EDGE_LOOP ( 'NONE', ( #135, #139 ) ) ;
#55 = CARTESIAN_POINT ( 'NONE',  ( 0.0000000000000000000, 1.000000000000000000, 0.0000000000000000000 ) ) ;
#56 = DIRECTION ( 'NONE',  ( 0.0000000000000000000, -0.0000000000000000000, 1.000000000000000000 ) ) ;
#57 = CLOSED_SHELL ( 'NONE', ( #145, #102, #152, #105 ) ) ;
#58 =( NAMED_UNIT ( * ) PLANE_ANGLE_UNIT ( ) SI_UNIT ( $, .RADIAN. ) );
#59 = DATE_TIME_ROLE ( 'classification_date' ) ;
#60 = ORIENTED_EDGE ( 'NONE', *, *, #151, .F. ) ;
#61 = CALENDAR_DATE ( 2017, 1, 2 ) ;
#62 = ORIENTED_EDGE ( 'NONE', *, *, #99, .T. ) ;
#63 = AXIS2_PLACEMENT_3D ( 'NONE', #126, #158, #148 ) ;
#64 = DIRECTION ( 'NONE',  ( 0.0000000000000000000, -0.0000000000000000000, 1.000000000000000000 ) ) ;
#65 = DIRECTION ( 'NONE',  ( 0.0000000000000000000, 1.000000000000000000, 0.0000000000000000000 ) ) ;
#66 = PLANE ( 'NONE',  #53 ) ;
#67 = CARTESIAN_POINT ( 'NONE',  ( 0.0000000000000000000, 0.0000000000000000000, 0.0000000000000000000 ) ) ;
#68 = EDGE_CURVE ( 'NONE', #121, #31, #127, .T. ) ;
#69 = ORGANIZATION ( 'UNSPECIFIED', 'UNSPECIFIED', '' ) ;
#70 = VECTOR ( 'NONE', #111, 1000.000000000000000 ) ;
#71 = EDGE_CURVE ( 'NONE', #20, #157, #108, .T. ) ;
#72 = APPROVAL_PERSON_ORGANIZATION ( #6, #33, #143 ) ;
#73 = ORIENTED_EDGE ( 'NONE', *, *, #71, .T. ) ;
#74 = PRODUCT_DEFINITION ( 'UNKNOWN', '', #140, #5 ) ;
#75 = DATE_AND_TIME ( #44, #174 ) ;
#76 = AXIS2_PLACEMENT_3D ( 'NONE', #10, #91, #25 ) ;
#77 = ORIENTED_EDGE ( 'NONE', *, *, #3, .F. ) ;
#78 = CARTESIAN_POINT ( 'NONE',  ( 0.0000000000000000000, 0.0000000000000000000, -12.50000000000000000 ) ) ;
#79 = SHAPE_DEFINITION_REPRESENTATION ( #109, #47 ) ;
#80 = CC_DESIGN_PERSON_AND_ORGANIZATION_ASSIGNMENT ( #21, #97, ( #74 ) ) ;
#81 = DIRECTION ( 'NONE',  ( -0.0000000000000000000, -1.000000000000000000, -0.0000000000000000000 ) ) ;
#82 = PERSON_AND_ORGANIZATION_ROLE ( 'design_owner' ) ;
#83 = APPROVAL_ROLE ( '' ) ;
#84 = SECURITY_CLASSIFICATION_LEVEL ( 'unclassified' ) ;
#85 = COORDINATED_UNIVERSAL_TIME_OFFSET ( 5, 0, .BEHIND. ) ;
#86 = ORIENTED_EDGE ( 'NONE', *, *, #68, .T. ) ;
#87 = AXIS2_PLACEMENT_3D ( 'NONE', #67, #65, #123 ) ;
#88 = AXIS2_PLACEMENT_3D ( 'NONE', #147, #26, #160 ) ;
#89 = EDGE_CURVE ( 'NONE', #121, #20, #142, .T. ) ;
#90 = VECTOR ( 'NONE', #81, 1000.000000000000000 ) ;
#91 = DIRECTION ( 'NONE',  ( 0.0000000000000000000, 1.000000000000000000, 0.0000000000000000000 ) ) ;
#92 = APPROVAL ( #129, 'UNSPECIFIED' ) ;
#93 = CARTESIAN_POINT ( 'NONE',  ( 0.0000000000000000000, 1.000000000000000000, 0.0000000000000000000 ) ) ;
#94 = CARTESIAN_POINT ( 'NONE',  ( 0.0000000000000000000, 0.0000000000000000000, 0.0000000000000000000 ) ) ;
#95 = APPLICATION_PROTOCOL_DEFINITION ( 'international standard', 'config_control_design', 1994, #171 ) ;
#96 = EDGE_LOOP ( 'NONE', ( #49, #86, #62, #106 ) ) ;
#97 = PERSON_AND_ORGANIZATION_ROLE ( 'creator' ) ;
#98 = MECHANICAL_CONTEXT ( 'NONE', #171, 'mechanical' ) ;
#99 = EDGE_CURVE ( 'NONE', #31, #157, #11, .T. ) ;
#100 = PRODUCT ( 'Web Model 68524', 'Web Model 68524', '', ( #98 ) ) ;
#101 = COORDINATED_UNIVERSAL_TIME_OFFSET ( 5, 0, .BEHIND. ) ;
#102 = ADVANCED_FACE ( 'NONE', ( #52 ), #103, .T. ) ;
#103 = CYLINDRICAL_SURFACE ( 'NONE', #155, 12.50000000000000000 ) ;
#104 = MANIFOLD_SOLID_BREP ( 'Extrude1', #57 ) ;
#105 = ADVANCED_FACE ( 'NONE', ( #22 ), #24, .F. ) ;
#106 = ORIENTED_EDGE ( 'NONE', *, *, #71, .F. ) ;
#107 = PERSON ( 'UNSPECIFIED', 'UNSPECIFIED', 'UNSPECIFIED', ('UNSPECIFIED'), ('UNSPECIFIED'), ('UNSPECIFIED') ) ;
#108 = LINE ( 'NONE', #39, #90 ) ;
#109 = PRODUCT_DEFINITION_SHAPE ( 'NONE', 'NONE',  #74 ) ;
#110 = CARTESIAN_POINT ( 'NONE',  ( 1.530808498934191500E-015, 1.000000000000000000, 12.50000000000000000 ) ) ;
#111 = DIRECTION ( 'NONE',  ( -0.0000000000000000000, -1.000000000000000000, -0.0000000000000000000 ) ) ;
#112 = CARTESIAN_POINT ( 'NONE',  ( 0.0000000000000000000, 1.000000000000000000, -12.50000000000000000 ) ) ;
#113 = CC_DESIGN_PERSON_AND_ORGANIZATION_ASSIGNMENT ( #131, #115, ( #140 ) ) ;
#114 = LOCAL_TIME ( 8, 27, 35.00000000000000000, #85 ) ;
#115 = PERSON_AND_ORGANIZATION_ROLE ( 'design_supplier' ) ;
#116 = CALENDAR_DATE ( 2017, 1, 2 ) ;
#117 = CIRCLE ( 'NONE', #63, 12.50000000000000000 ) ;
#118 = APPROVAL_DATE_TIME ( #75, #32 ) ;
#119 = AXIS2_PLACEMENT_3D ( 'NONE', #94, #4, #56 ) ;
#120 = DATE_AND_TIME ( #51, #114 ) ;
#121 = VERTEX_POINT ( 'NONE', #110 ) ;
#122 = UNCERTAINTY_MEASURE_WITH_UNIT (LENGTH_MEASURE( 1.000000000000000100E-005 ), #141, 'distance_accuracy_value', 'NONE');
#123 = DIRECTION ( 'NONE',  ( 0.0000000000000000000, 0.0000000000000000000, 1.000000000000000000 ) ) ;
#124 = CC_DESIGN_APPROVAL ( #92, ( #74 ) ) ;
#125 = APPROVAL_PERSON_ORGANIZATION ( #15, #92, #166 ) ;
#126 = CARTESIAN_POINT ( 'NONE',  ( 0.0000000000000000000, 1.000000000000000000, 0.0000000000000000000 ) ) ;
#127 = LINE ( 'NONE', #23, #70 ) ;
#128 = APPLICATION_PROTOCOL_DEFINITION ( 'international standard', 'config_control_design', 1994, #173 ) ;
#129 = APPROVAL_STATUS ( 'not_yet_approved' ) ;
#130 = CC_DESIGN_PERSON_AND_ORGANIZATION_ASSIGNMENT ( #134, #14, ( #140 ) ) ;
#131 = PERSON_AND_ORGANIZATION ( #107, #69 ) ;
#132 = ORIENTED_EDGE ( 'NONE', *, *, #99, .F. ) ;
#133 = CC_DESIGN_DATE_AND_TIME_ASSIGNMENT ( #35, #12, ( #74 ) ) ;
#134 = PERSON_AND_ORGANIZATION ( #107, #69 ) ;
#135 = ORIENTED_EDGE ( 'NONE', *, *, #151, .T. ) ;
#136 = CALENDAR_DATE ( 2017, 1, 2 ) ;
#137 = DIRECTION ( 'NONE',  ( 0.0000000000000000000, 0.0000000000000000000, -1.000000000000000000 ) ) ;
#138 =( NAMED_UNIT ( * ) SI_UNIT ( $, .STERADIAN. ) SOLID_ANGLE_UNIT ( ) );
#139 = ORIENTED_EDGE ( 'NONE', *, *, #89, .T. ) ;
#140 = PRODUCT_DEFINITION_FORMATION_WITH_SPECIFIED_SOURCE ( 'ANY', '', #100, .NOT_KNOWN. ) ;
#141 =( LENGTH_UNIT ( ) NAMED_UNIT ( * ) SI_UNIT ( .MILLI., .METRE. ) );
#142 = CIRCLE ( 'NONE', #76, 12.50000000000000000 ) ;
#143 = APPROVAL_ROLE ( '' ) ;
#144 = COORDINATED_UNIVERSAL_TIME_OFFSET ( 5, 0, .BEHIND. ) ;
#145 = ADVANCED_FACE ( 'NONE', ( #36 ), #149, .T. ) ;
#146 = DIRECTION ( 'NONE',  ( -0.0000000000000000000, -1.000000000000000000, -0.0000000000000000000 ) ) ;
#147 = CARTESIAN_POINT ( 'NONE',  ( 0.0000000000000000000, 1.000000000000000000, 0.0000000000000000000 ) ) ;
#148 = DIRECTION ( 'NONE',  ( 0.0000000000000000000, 0.0000000000000000000, 1.000000000000000000 ) ) ;
#149 = CYLINDRICAL_SURFACE ( 'NONE', #88, 12.50000000000000000 ) ;
#150 = CC_DESIGN_PERSON_AND_ORGANIZATION_ASSIGNMENT ( #153, #163, ( #13 ) ) ;
#151 = EDGE_CURVE ( 'NONE', #20, #121, #117, .T. ) ;
#152 = ADVANCED_FACE ( 'NONE', ( #2 ), #66, .T. ) ;
#153 = PERSON_AND_ORGANIZATION ( #107, #69 ) ;
#154 = EDGE_LOOP ( 'NONE', ( #77, #132 ) ) ;
#155 = AXIS2_PLACEMENT_3D ( 'NONE', #93, #146, #137 ) ;
#156 = DATE_AND_TIME ( #116, #45 ) ;
#157 = VERTEX_POINT ( 'NONE', #78 ) ;
#158 = DIRECTION ( 'NONE',  ( 0.0000000000000000000, 1.000000000000000000, 0.0000000000000000000 ) ) ;
#159 = CARTESIAN_POINT ( 'NONE',  ( 1.530808498934191500E-015, 0.0000000000000000000, 12.50000000000000000 ) ) ;
#160 = DIRECTION ( 'NONE',  ( 0.0000000000000000000, 0.0000000000000000000, -1.000000000000000000 ) ) ;
#161 = ORIENTED_EDGE ( 'NONE', *, *, #68, .F. ) ;
#162 = CARTESIAN_POINT ( 'NONE',  ( 0.0000000000000000000, 0.0000000000000000000, 0.0000000000000000000 ) ) ;
#163 = PERSON_AND_ORGANIZATION_ROLE ( 'classification_officer' ) ;
#164 = APPROVAL_DATE_TIME ( #17, #33 ) ;
#165 = CIRCLE ( 'NONE', #46, 12.50000000000000000 ) ;
#166 = APPROVAL_ROLE ( '' ) ;
#167 = PRODUCT_RELATED_PRODUCT_CATEGORY ( 'detail', '', ( #100 ) ) ;
#168 = AXIS2_PLACEMENT_3D ( 'NONE', #170, #40, #27 ) ;
#169 = LOCAL_TIME ( 8, 27, 35.00000000000000000, #101 ) ;
#170 = CARTESIAN_POINT ( 'NONE',  ( 0.0000000000000000000, 0.0000000000000000000, 0.0000000000000000000 ) ) ;
#171 = APPLICATION_CONTEXT ( 'configuration controlled 3d designs of mechanical parts and assemblies' ) ;
#172 = DIRECTION ( 'NONE',  ( 0.0000000000000000000, 0.0000000000000000000, 1.000000000000000000 ) ) ;
#173 = APPLICATION_CONTEXT ( 'configuration controlled 3d designs of mechanical parts and assemblies' ) ;
#174 = LOCAL_TIME ( 8, 27, 35.00000000000000000, #144 ) ;
#175 = APPROVAL_STATUS ( 'not_yet_approved' ) ;
ENDSEC;
END-ISO-10303-21;
