ISO-10303-21;
HEADER;
FILE_DESCRIPTION (( 'STEP AP203' ),
    '1' );
FILE_NAME ('Web Model 11537_11537.step',
    '2019-12-17T13:41:50',
    ( '' ),
    ( '' ),
    'SwSTEP 2.0',
    'SolidWorks 2018',
    '' );
FILE_SCHEMA (( 'CONFIG_CONTROL_DESIGN' ));
ENDSEC;

DATA;
#1 = EDGE_LOOP ( 'NONE', ( #80, #209, #100, #233 ) ) ;
#2 = DIRECTION ( 'NONE',  ( -0.7071067811864980568, -0.7071067811865969777, 0.0000000000000000000 ) ) ;
#3 = AXIS2_PLACEMENT_3D ( 'NONE', #226, #196, #87 ) ;
#4 = CARTESIAN_POINT ( 'NONE',  ( 11.35056527123999892, 20.00000000000000000, 0.0000000000000000000 ) ) ;
#5 = LINE ( 'NONE', #157, #197 ) ;
#6 = CC_DESIGN_PERSON_AND_ORGANIZATION_ASSIGNMENT ( #18, #200, ( #45 ) ) ;
#7 = EDGE_CURVE ( 'NONE', #170, #162, #201, .T. ) ;
#8 = CARTESIAN_POINT ( 'NONE',  ( 513.3899999999999864, 0.0000000000000000000, 0.0000000000000000000 ) ) ;
#9 = CIRCLE ( 'NONE', #133, 18.79791847198000099 ) ;
#10 = ORIENTED_EDGE ( 'NONE', *, *, #139, .T. ) ;
#11 = PERSON_AND_ORGANIZATION_ROLE ( 'classification_officer' ) ;
#12 = COORDINATED_UNIVERSAL_TIME_OFFSET ( 5, 0, .BEHIND. ) ;
#13 = LOCAL_TIME ( 8, 41, 50.00000000000000000, #161 ) ;
#14 = ORIENTED_EDGE ( 'NONE', *, *, #190, .T. ) ;
#15 = CC_DESIGN_PERSON_AND_ORGANIZATION_ASSIGNMENT ( #141, #91, ( #92 ) ) ;
#16 = CALENDAR_DATE ( 2019, 17, 12 ) ;
#17 = ADVANCED_FACE ( 'NONE', ( #97 ), #66, .F. ) ;
#18 = PERSON_AND_ORGANIZATION ( #121, #174 ) ;
#19 = CYLINDRICAL_SURFACE ( 'NONE', #21, 20.00000000000000000 ) ;
#20 = DIRECTION ( 'NONE',  ( -1.000000000000000000, 0.0000000000000000000, 0.0000000000000000000 ) ) ;
#21 = AXIS2_PLACEMENT_3D ( 'NONE', #106, #43, #84 ) ;
#22 = DIRECTION ( 'NONE',  ( -1.000000000000000000, 0.0000000000000000000, 0.0000000000000000000 ) ) ;
#23 = DIRECTION ( 'NONE',  ( 1.000000000000000000, 0.0000000000000000000, 0.0000000000000000000 ) ) ;
#24 = ADVANCED_FACE ( 'NONE', ( #51 ), #35, .T. ) ;
#25 = EDGE_CURVE ( 'NONE', #56, #117, #9, .T. ) ;
#26 = DIRECTION ( 'NONE',  ( -1.000000000000000000, 0.0000000000000000000, 0.0000000000000000000 ) ) ;
#27 = APPROVAL_ROLE ( '' ) ;
#28 = VECTOR ( 'NONE', #229, 1000.000000000000000 ) ;
#29 = DIRECTION ( 'NONE',  ( -1.000000000000000000, 0.0000000000000000000, 0.0000000000000000000 ) ) ;
#30 = APPLICATION_PROTOCOL_DEFINITION ( 'international standard', 'config_control_design', 1994, #167 ) ;
#31 = DATE_AND_TIME ( #179, #96 ) ;
#32 = AXIS2_PLACEMENT_3D ( 'NONE', #8, #126, #29 ) ;
#33 = APPROVAL ( #129, 'UNSPECIFIED' ) ;
#34 = COORDINATED_UNIVERSAL_TIME_OFFSET ( 5, 0, .BEHIND. ) ;
#35 = CYLINDRICAL_SURFACE ( 'NONE', #213, 20.00000000000000000 ) ;
#36 = CC_DESIGN_PERSON_AND_ORGANIZATION_ASSIGNMENT ( #72, #217, ( #127 ) ) ;
#37 = MANIFOLD_SOLID_BREP ( 'Web Model 11537.stp', #238 ) ;
#38 = VERTEX_POINT ( 'NONE', #214 ) ;
#39 = COORDINATED_UNIVERSAL_TIME_OFFSET ( 5, 0, .BEHIND. ) ;
#40 = ORIENTED_EDGE ( 'NONE', *, *, #99, .T. ) ;
#41 =( GEOMETRIC_REPRESENTATION_CONTEXT ( 3 ) GLOBAL_UNCERTAINTY_ASSIGNED_CONTEXT ( ( #134 ) ) GLOBAL_UNIT_ASSIGNED_CONTEXT ( ( #90, #164, #145 ) ) REPRESENTATION_CONTEXT ( 'NONE', 'WORKASPACE' ) );
#42 = ORIENTED_EDGE ( 'NONE', *, *, #7, .F. ) ;
#43 = DIRECTION ( 'NONE',  ( 1.000000000000000000, 0.0000000000000000000, 0.0000000000000000000 ) ) ;
#44 = DIRECTION ( 'NONE',  ( 0.0000000000000000000, 1.000000000000000000, 0.0000000000000000000 ) ) ;
#45 = PRODUCT_DEFINITION_FORMATION_WITH_SPECIFIED_SOURCE ( 'ANY', '', #127, .NOT_KNOWN. ) ;
#46 = DIRECTION ( 'NONE',  ( 0.0000000000000000000, 1.000000000000000000, 0.0000000000000000000 ) ) ;
#47 = DATE_AND_TIME ( #130, #185 ) ;
#48 = FACE_OUTER_BOUND ( 'NONE', #220, .T. ) ;
#49 = AXIS2_PLACEMENT_3D ( 'NONE', #64, #83, #227 ) ;
#50 = DIRECTION ( 'NONE',  ( -1.000000000000000000, 0.0000000000000000000, 0.0000000000000000000 ) ) ;
#51 = FACE_OUTER_BOUND ( 'NONE', #180, .T. ) ;
#52 = CC_DESIGN_PERSON_AND_ORGANIZATION_ASSIGNMENT ( #211, #74, ( #45 ) ) ;
#53 = DIRECTION ( 'NONE',  ( 0.0000000000000000000, 1.000000000000000000, 0.0000000000000000000 ) ) ;
#54 = FACE_OUTER_BOUND ( 'NONE', #120, .T. ) ;
#55 = SECURITY_CLASSIFICATION ( '', '', #128 ) ;
#56 = VERTEX_POINT ( 'NONE', #107 ) ;
#57 = DESIGN_CONTEXT ( 'detailed design', #70, 'design' ) ;
#58 = ADVANCED_FACE ( 'NONE', ( #184 ), #152, .T. ) ;
#59 = CALENDAR_DATE ( 2019, 17, 12 ) ;
#60 = ORIENTED_EDGE ( 'NONE', *, *, #99, .F. ) ;
#61 = ADVANCED_BREP_SHAPE_REPRESENTATION ( 'Web Model 11537_11537', ( #37, #71 ), #41 ) ;
#62 = VERTEX_POINT ( 'NONE', #175 ) ;
#63 = ORIENTED_EDGE ( 'NONE', *, *, #118, .F. ) ;
#64 = CARTESIAN_POINT ( 'NONE',  ( 513.3899999999999864, 0.0000000000000000000, 0.0000000000000000000 ) ) ;
#65 = AXIS2_PLACEMENT_3D ( 'NONE', #199, #50, #110 ) ;
#66 = PLANE ( 'NONE',  #159 ) ;
#67 = CARTESIAN_POINT ( 'NONE',  ( 12.55264679926000149, 18.79791847198000099, 0.0000000000000000000 ) ) ;
#68 = DIRECTION ( 'NONE',  ( 0.0000000000000000000, -1.000000000000000000, 0.0000000000000000000 ) ) ;
#69 = CARTESIAN_POINT ( 'NONE',  ( 0.0000000000000000000, 20.00000000000000000, 0.0000000000000000000 ) ) ;
#70 = APPLICATION_CONTEXT ( 'configuration controlled 3d designs of mechanical parts and assemblies' ) ;
#71 = AXIS2_PLACEMENT_3D ( 'NONE', #232, #144, #115 ) ;
#72 = PERSON_AND_ORGANIZATION ( #121, #174 ) ;
#73 = EDGE_LOOP ( 'NONE', ( #93, #205 ) ) ;
#74 = PERSON_AND_ORGANIZATION_ROLE ( 'creator' ) ;
#75 = EDGE_CURVE ( 'NONE', #56, #62, #102, .T. ) ;
#76 = DATE_TIME_ROLE ( 'classification_date' ) ;
#77 = APPROVAL ( #198, 'UNSPECIFIED' ) ;
#78 = EDGE_LOOP ( 'NONE', ( #113, #156, #63, #189 ) ) ;
#79 = ORIENTED_EDGE ( 'NONE', *, *, #139, .F. ) ;
#80 = ORIENTED_EDGE ( 'NONE', *, *, #114, .T. ) ;
#81 = LINE ( 'NONE', #212, #143 ) ;
#82 = PRODUCT_RELATED_PRODUCT_CATEGORY ( 'detail', '', ( #127 ) ) ;
#83 = DIRECTION ( 'NONE',  ( 0.0000000000000000000, 0.0000000000000000000, -1.000000000000000000 ) ) ;
#84 = DIRECTION ( 'NONE',  ( 0.0000000000000000000, -1.000000000000000000, 0.0000000000000000000 ) ) ;
#85 = ORIENTED_EDGE ( 'NONE', *, *, #131, .T. ) ;
#86 = CARTESIAN_POINT ( 'NONE',  ( 513.3899999999999864, 0.0000000000000000000, 0.0000000000000000000 ) ) ;
#87 = DIRECTION ( 'NONE',  ( 0.0000000000000000000, 1.000000000000000000, 0.0000000000000000000 ) ) ;
#88 = COORDINATED_UNIVERSAL_TIME_OFFSET ( 5, 0, .BEHIND. ) ;
#89 = MECHANICAL_CONTEXT ( 'NONE', #167, 'mechanical' ) ;
#90 =( LENGTH_UNIT ( ) NAMED_UNIT ( * ) SI_UNIT ( .MILLI., .METRE. ) );
#91 = PERSON_AND_ORGANIZATION_ROLE ( 'creator' ) ;
#92 = PRODUCT_DEFINITION ( 'UNKNOWN', '', #45, #57 ) ;
#93 = ORIENTED_EDGE ( 'NONE', *, *, #183, .F. ) ;
#94 = ORIENTED_EDGE ( 'NONE', *, *, #114, .F. ) ;
#95 = DIRECTION ( 'NONE',  ( 1.000000000000000000, 0.0000000000000000000, 0.0000000000000000000 ) ) ;
#96 = LOCAL_TIME ( 8, 41, 50.00000000000000000, #88 ) ;
#97 = FACE_OUTER_BOUND ( 'NONE', #73, .T. ) ;
#98 = APPROVAL ( #111, 'UNSPECIFIED' ) ;
#99 = EDGE_CURVE ( 'NONE', #38, #162, #5, .T. ) ;
#100 = ORIENTED_EDGE ( 'NONE', *, *, #131, .F. ) ;
#101 = VECTOR ( 'NONE', #138, 1000.000000000000000 ) ;
#102 = LINE ( 'NONE', #67, #28 ) ;
#103 = CARTESIAN_POINT ( 'NONE',  ( 0.0000000000000000000, 0.0000000000000000000, 0.0000000000000000000 ) ) ;
#104 = CARTESIAN_POINT ( 'NONE',  ( 12.55264679926000149, 0.0000000000000000000, 0.0000000000000000000 ) ) ;
#105 = ADVANCED_FACE ( 'NONE', ( #203 ), #186, .F. ) ;
#106 = CARTESIAN_POINT ( 'NONE',  ( -0.6276323399630999722, 0.0000000000000000000, 0.0000000000000000000 ) ) ;
#107 = CARTESIAN_POINT ( 'NONE',  ( 12.55264679926000149, 18.79791847198000099, 0.0000000000000000000 ) ) ;
#108 = CIRCLE ( 'NONE', #234, 20.00000000000000000 ) ;
#109 = DIRECTION ( 'NONE',  ( 0.0000000000000000000, 1.000000000000000000, 0.0000000000000000000 ) ) ;
#110 = DIRECTION ( 'NONE',  ( 0.0000000000000000000, 1.000000000000000000, 0.0000000000000000000 ) ) ;
#111 = APPROVAL_STATUS ( 'not_yet_approved' ) ;
#112 = ORIENTED_EDGE ( 'NONE', *, *, #183, .T. ) ;
#113 = ORIENTED_EDGE ( 'NONE', *, *, #25, .T. ) ;
#114 = EDGE_CURVE ( 'NONE', #62, #38, #108, .T. ) ;
#115 = DIRECTION ( 'NONE',  ( 1.000000000000000000, 0.0000000000000000000, 0.0000000000000000000 ) ) ;
#116 = APPROVAL_PERSON_ORGANIZATION ( #119, #77, #146 ) ;
#117 = VERTEX_POINT ( 'NONE', #194 ) ;
#118 = EDGE_CURVE ( 'NONE', #62, #38, #193, .T. ) ;
#119 = PERSON_AND_ORGANIZATION ( #121, #174 ) ;
#120 = EDGE_LOOP ( 'NONE', ( #236, #40, #42, #79 ) ) ;
#121 = PERSON ( 'UNSPECIFIED', 'UNSPECIFIED', 'UNSPECIFIED', ('UNSPECIFIED'), ('UNSPECIFIED'), ('UNSPECIFIED') ) ;
#122 = CARTESIAN_POINT ( 'NONE',  ( 11.95160603525000020, 0.0000000000000000000, 0.0000000000000000000 ) ) ;
#123 = ADVANCED_FACE ( 'NONE', ( #54 ), #19, .T. ) ;
#124 = LOCAL_TIME ( 8, 41, 50.00000000000000000, #34 ) ;
#125 = CC_DESIGN_DATE_AND_TIME_ASSIGNMENT ( #31, #76, ( #55 ) ) ;
#126 = DIRECTION ( 'NONE',  ( 0.0000000000000000000, 0.0000000000000000000, 1.000000000000000000 ) ) ;
#127 = PRODUCT ( 'Web Model 11537_11537', 'Web Model 11537_11537', '', ( #89 ) ) ;
#128 = SECURITY_CLASSIFICATION_LEVEL ( 'unclassified' ) ;
#129 = APPROVAL_STATUS ( 'not_yet_approved' ) ;
#130 = CALENDAR_DATE ( 2019, 17, 12 ) ;
#131 = EDGE_CURVE ( 'NONE', #56, #117, #225, .T. ) ;
#132 = CC_DESIGN_SECURITY_CLASSIFICATION ( #55, ( #45 ) ) ;
#133 = AXIS2_PLACEMENT_3D ( 'NONE', #104, #137, #172 ) ;
#134 = UNCERTAINTY_MEASURE_WITH_UNIT (LENGTH_MEASURE( 1.000000000000000082E-05 ), #90, 'distance_accuracy_value', 'NONE');
#135 = DIRECTION ( 'NONE',  ( 0.0000000000000000000, 1.000000000000000000, 0.0000000000000000000 ) ) ;
#136 = FACE_OUTER_BOUND ( 'NONE', #78, .T. ) ;
#137 = DIRECTION ( 'NONE',  ( -1.000000000000000000, 0.0000000000000000000, 0.0000000000000000000 ) ) ;
#138 = DIRECTION ( 'NONE',  ( -1.000000000000000000, 0.0000000000000000000, 0.0000000000000000000 ) ) ;
#139 = EDGE_CURVE ( 'NONE', #62, #170, #148, .T. ) ;
#140 = DIRECTION ( 'NONE',  ( 0.0000000000000000000, 0.0000000000000000000, -1.000000000000000000 ) ) ;
#141 = PERSON_AND_ORGANIZATION ( #121, #174 ) ;
#142 = CARTESIAN_POINT ( 'NONE',  ( 0.0000000000000000000, -20.00000000000000000, 0.0000000000000000000 ) ) ;
#143 = VECTOR ( 'NONE', #2, 1000.000000000000000 ) ;
#144 = DIRECTION ( 'NONE',  ( 0.0000000000000000000, 0.0000000000000000000, 1.000000000000000000 ) ) ;
#145 =( NAMED_UNIT ( * ) SI_UNIT ( $, .STERADIAN. ) SOLID_ANGLE_UNIT ( ) );
#146 = APPROVAL_ROLE ( '' ) ;
#147 = CIRCLE ( 'NONE', #32, 501.1899999999999977 ) ;
#148 = LINE ( 'NONE', #4, #101 ) ;
#149 = ORIENTED_EDGE ( 'NONE', *, *, #190, .F. ) ;
#150 = EDGE_CURVE ( 'NONE', #117, #38, #81, .T. ) ;
#151 = APPROVAL_PERSON_ORGANIZATION ( #206, #98, #27 ) ;
#152 = CONICAL_SURFACE ( 'NONE', #177, 19.39895923598999872, 0.7853981633972997312 ) ;
#153 = ADVANCED_FACE ( 'NONE', ( #48 ), #240, .F. ) ;
#154 = AXIS2_PLACEMENT_3D ( 'NONE', #86, #140, #163 ) ;
#155 = CALENDAR_DATE ( 2019, 17, 12 ) ;
#156 = ORIENTED_EDGE ( 'NONE', *, *, #150, .T. ) ;
#157 = CARTESIAN_POINT ( 'NONE',  ( 11.35056527123999892, -20.00000000000000000, 0.0000000000000000000 ) ) ;
#158 = EDGE_LOOP ( 'NONE', ( #85, #149 ) ) ;
#159 = AXIS2_PLACEMENT_3D ( 'NONE', #178, #173, #210 ) ;
#160 = DIRECTION ( 'NONE',  ( 1.000000000000000000, 0.0000000000000000000, 0.0000000000000000000 ) ) ;
#161 = COORDINATED_UNIVERSAL_TIME_OFFSET ( 5, 0, .BEHIND. ) ;
#162 = VERTEX_POINT ( 'NONE', #142 ) ;
#163 = DIRECTION ( 'NONE',  ( 0.0000000000000000000, -1.000000000000000000, 0.0000000000000000000 ) ) ;
#164 =( NAMED_UNIT ( * ) PLANE_ANGLE_UNIT ( ) SI_UNIT ( $, .RADIAN. ) );
#165 = DATE_TIME_ROLE ( 'creation_date' ) ;
#166 = APPROVAL_PERSON_ORGANIZATION ( #208, #33, #215 ) ;
#167 = APPLICATION_CONTEXT ( 'configuration controlled 3d designs of mechanical parts and assemblies' ) ;
#168 = CC_DESIGN_APPROVAL ( #33, ( #45 ) ) ;
#169 = AXIS2_PLACEMENT_3D ( 'NONE', #103, #22, #109 ) ;
#170 = VERTEX_POINT ( 'NONE', #69 ) ;
#171 = PRODUCT_DEFINITION_SHAPE ( 'NONE', 'NONE',  #92 ) ;
#172 = DIRECTION ( 'NONE',  ( 0.0000000000000000000, 1.000000000000000000, 0.0000000000000000000 ) ) ;
#173 = DIRECTION ( 'NONE',  ( 1.000000000000000000, 0.0000000000000000000, 0.0000000000000000000 ) ) ;
#174 = ORGANIZATION ( 'UNSPECIFIED', 'UNSPECIFIED', '' ) ;
#175 = CARTESIAN_POINT ( 'NONE',  ( 11.35056527123999892, 20.00000000000000000, 0.0000000000000000000 ) ) ;
#176 = CARTESIAN_POINT ( 'NONE',  ( 11.35056527123999892, 0.0000000000000000000, 0.0000000000000000000 ) ) ;
#177 = AXIS2_PLACEMENT_3D ( 'NONE', #122, #26, #135 ) ;
#178 = CARTESIAN_POINT ( 'NONE',  ( 0.0000000000000000000, 0.0000000000000000000, 0.0000000000000000000 ) ) ;
#179 = CALENDAR_DATE ( 2019, 17, 12 ) ;
#180 = EDGE_LOOP ( 'NONE', ( #112, #60, #94, #10 ) ) ;
#181 = APPLICATION_PROTOCOL_DEFINITION ( 'international standard', 'config_control_design', 1994, #70 ) ;
#182 = CC_DESIGN_DATE_AND_TIME_ASSIGNMENT ( #239, #165, ( #92 ) ) ;
#183 = EDGE_CURVE ( 'NONE', #170, #162, #237, .T. ) ;
#184 = FACE_OUTER_BOUND ( 'NONE', #1, .T. ) ;
#185 = LOCAL_TIME ( 8, 41, 50.00000000000000000, #12 ) ;
#186 = SPHERICAL_SURFACE ( 'NONE', #49, 501.1899999999999977 ) ;
#187 = CC_DESIGN_APPROVAL ( #98, ( #92 ) ) ;
#188 = PERSON_AND_ORGANIZATION ( #121, #174 ) ;
#189 = ORIENTED_EDGE ( 'NONE', *, *, #75, .F. ) ;
#190 = EDGE_CURVE ( 'NONE', #56, #117, #147, .T. ) ;
#191 = AXIS2_PLACEMENT_3D ( 'NONE', #202, #95, #53 ) ;
#192 = DIRECTION ( 'NONE',  ( 1.000000000000000000, 0.0000000000000000000, 0.0000000000000000000 ) ) ;
#193 = CIRCLE ( 'NONE', #3, 20.00000000000000000 ) ;
#194 = CARTESIAN_POINT ( 'NONE',  ( 12.55264679926000149, -18.79791847198000099, 0.0000000000000000000 ) ) ;
#195 = APPROVAL_DATE_TIME ( #230, #77 ) ;
#196 = DIRECTION ( 'NONE',  ( -1.000000000000000000, 0.0000000000000000000, 0.0000000000000000000 ) ) ;
#197 = VECTOR ( 'NONE', #20, 1000.000000000000000 ) ;
#198 = APPROVAL_STATUS ( 'not_yet_approved' ) ;
#199 = CARTESIAN_POINT ( 'NONE',  ( 11.95160603525000020, 0.0000000000000000000, 0.0000000000000000000 ) ) ;
#200 = PERSON_AND_ORGANIZATION_ROLE ( 'design_supplier' ) ;
#201 = CIRCLE ( 'NONE', #169, 20.00000000000000000 ) ;
#202 = CARTESIAN_POINT ( 'NONE',  ( 0.0000000000000000000, 0.0000000000000000000, 0.0000000000000000000 ) ) ;
#203 = FACE_OUTER_BOUND ( 'NONE', #158, .T. ) ;
#204 = LOCAL_TIME ( 8, 41, 50.00000000000000000, #39 ) ;
#205 = ORIENTED_EDGE ( 'NONE', *, *, #7, .T. ) ;
#206 = PERSON_AND_ORGANIZATION ( #121, #174 ) ;
#207 = CC_DESIGN_PERSON_AND_ORGANIZATION_ASSIGNMENT ( #188, #11, ( #55 ) ) ;
#208 = PERSON_AND_ORGANIZATION ( #121, #174 ) ;
#209 = ORIENTED_EDGE ( 'NONE', *, *, #150, .F. ) ;
#210 = DIRECTION ( 'NONE',  ( 0.0000000000000000000, 1.000000000000000000, 0.0000000000000000000 ) ) ;
#211 = PERSON_AND_ORGANIZATION ( #121, #174 ) ;
#212 = CARTESIAN_POINT ( 'NONE',  ( 12.55264679926000149, -18.79791847198000099, 0.0000000000000000000 ) ) ;
#213 = AXIS2_PLACEMENT_3D ( 'NONE', #223, #192, #68 ) ;
#214 = CARTESIAN_POINT ( 'NONE',  ( 11.35056527123999892, -20.00000000000000000, 0.0000000000000000000 ) ) ;
#215 = APPROVAL_ROLE ( '' ) ;
#216 = ORIENTED_EDGE ( 'NONE', *, *, #25, .F. ) ;
#217 = PERSON_AND_ORGANIZATION_ROLE ( 'design_owner' ) ;
#218 = CC_DESIGN_APPROVAL ( #77, ( #55 ) ) ;
#219 = APPROVAL_DATE_TIME ( #235, #98 ) ;
#220 = EDGE_LOOP ( 'NONE', ( #14, #216 ) ) ;
#221 = APPROVAL_DATE_TIME ( #47, #33 ) ;
#222 = ADVANCED_FACE ( 'NONE', ( #136 ), #231, .T. ) ;
#223 = CARTESIAN_POINT ( 'NONE',  ( -0.6276323399630999722, 0.0000000000000000000, 0.0000000000000000000 ) ) ;
#224 = SHAPE_DEFINITION_REPRESENTATION ( #171, #61 ) ;
#225 = CIRCLE ( 'NONE', #241, 18.79791847198000099 ) ;
#226 = CARTESIAN_POINT ( 'NONE',  ( 11.35056527123999892, 0.0000000000000000000, 0.0000000000000000000 ) ) ;
#227 = DIRECTION ( 'NONE',  ( 0.0000000000000000000, -1.000000000000000000, 0.0000000000000000000 ) ) ;
#228 = CARTESIAN_POINT ( 'NONE',  ( 12.55264679926000149, 0.0000000000000000000, 0.0000000000000000000 ) ) ;
#229 = DIRECTION ( 'NONE',  ( -0.7071067811864980568, 0.7071067811865969777, 0.0000000000000000000 ) ) ;
#230 = DATE_AND_TIME ( #155, #124 ) ;
#231 = CONICAL_SURFACE ( 'NONE', #65, 19.39895923598999872, 0.7853981633972997312 ) ;
#232 = CARTESIAN_POINT ( 'NONE',  ( 0.0000000000000000000, 0.0000000000000000000, 0.0000000000000000000 ) ) ;
#233 = ORIENTED_EDGE ( 'NONE', *, *, #75, .T. ) ;
#234 = AXIS2_PLACEMENT_3D ( 'NONE', #176, #23, #44 ) ;
#235 = DATE_AND_TIME ( #16, #204 ) ;
#236 = ORIENTED_EDGE ( 'NONE', *, *, #118, .T. ) ;
#237 = CIRCLE ( 'NONE', #191, 20.00000000000000000 ) ;
#238 = CLOSED_SHELL ( 'NONE', ( #105, #153, #222, #58, #24, #123, #17 ) ) ;
#239 = DATE_AND_TIME ( #59, #13 ) ;
#240 = SPHERICAL_SURFACE ( 'NONE', #154, 501.1899999999999977 ) ;
#241 = AXIS2_PLACEMENT_3D ( 'NONE', #228, #160, #46 ) ;
ENDSEC;
END-ISO-10303-21;
