ISO-10303-21;
HEADER;
FILE_DESCRIPTION (( 'STEP AP203' ),
    '1' );
FILE_NAME ('Web Model 48864_48862.step',
    '2017-05-09T18:59:54',
    ( '' ),
    ( '' ),
    'SwSTEP 2.0',
    'SolidWorks 2016',
    '' );
FILE_SCHEMA (( 'CONFIG_CONTROL_DESIGN' ));
ENDSEC;

DATA;
#1 = CC_DESIGN_PERSON_AND_ORGANIZATION_ASSIGNMENT ( #236, #250, ( #190 ) ) ;
#2 = EDGE_LOOP ( 'NONE', ( #282, #261, #155 ) ) ;
#3 = LINE ( 'NONE', #214, #247 ) ;
#4 = ORIENTED_EDGE ( 'NONE', *, *, #73, .T. ) ;
#5 = CARTESIAN_POINT ( 'NONE',  ( -25.00000000000000000, 0.0000000000000000000, 25.00000000000000000 ) ) ;
#6 = FACE_OUTER_BOUND ( 'NONE', #58, .T. ) ;
#7 = DIRECTION ( 'NONE',  ( -0.0000000000000000000, 0.0000000000000000000, 1.000000000000000000 ) ) ;
#8 = CARTESIAN_POINT ( 'NONE',  ( 0.0000000000000000000, 0.0000000000000000000, 25.00000000000000000 ) ) ;
#9 = EDGE_CURVE ( 'NONE', #264, #249, #78, .T. ) ;
#10 = CARTESIAN_POINT ( 'NONE',  ( 0.0000000000000000000, 0.0000000000000000000, 25.00000000000000000 ) ) ;
#11 = CARTESIAN_POINT ( 'NONE',  ( 25.00000000000000000, -25.00000000000000000, 25.00000000000000000 ) ) ;
#12 = LINE ( 'NONE', #219, #108 ) ;
#13 =( GEOMETRIC_REPRESENTATION_CONTEXT ( 3 ) GLOBAL_UNCERTAINTY_ASSIGNED_CONTEXT ( ( #165 ) ) GLOBAL_UNIT_ASSIGNED_CONTEXT ( ( #179, #50, #314 ) ) REPRESENTATION_CONTEXT ( 'NONE', 'WORKASPACE' ) );
#14 = DIRECTION ( 'NONE',  ( 0.0000000000000000000, 1.000000000000000000, 0.0000000000000000000 ) ) ;
#15 = DIRECTION ( 'NONE',  ( -1.000000000000000000, 0.0000000000000000000, 0.0000000000000000000 ) ) ;
#16 = CARTESIAN_POINT ( 'NONE',  ( 0.0000000000000000000, 0.0000000000000000000, -25.00000000000000000 ) ) ;
#17 = LOCAL_TIME ( 14, 59, 54.00000000000000000, #193 ) ;
#18 = CARTESIAN_POINT ( 'NONE',  ( 25.00000000000000000, 0.0000000000000000000, 25.00000000000000000 ) ) ;
#19 = LINE ( 'NONE', #304, #211 ) ;
#20 = CC_DESIGN_PERSON_AND_ORGANIZATION_ASSIGNMENT ( #25, #245, ( #197 ) ) ;
#21 = APPROVAL_ROLE ( '' ) ;
#22 = APPROVAL_PERSON_ORGANIZATION ( #97, #248, #67 ) ;
#23 = EDGE_CURVE ( 'NONE', #191, #200, #206, .T. ) ;
#24 = ORIENTED_EDGE ( 'NONE', *, *, #175, .T. ) ;
#25 = PERSON_AND_ORGANIZATION ( #86, #83 ) ;
#26 = VERTEX_POINT ( 'NONE', #131 ) ;
#27 = APPLICATION_CONTEXT ( 'configuration controlled 3d designs of mechanical parts and assemblies' ) ;
#28 = DATE_AND_TIME ( #37, #173 ) ;
#29 = DESIGN_CONTEXT ( 'detailed design', #27, 'design' ) ;
#30 = ORIENTED_EDGE ( 'NONE', *, *, #256, .T. ) ;
#31 = EDGE_CURVE ( 'NONE', #316, #176, #182, .T. ) ;
#32 = PERSON_AND_ORGANIZATION ( #86, #83 ) ;
#33 = VECTOR ( 'NONE', #277, 1000.000000000000000 ) ;
#34 = CARTESIAN_POINT ( 'NONE',  ( 0.0000000000000000000, -25.00000000000000000, -25.00000000000000000 ) ) ;
#35 = DIRECTION ( 'NONE',  ( 0.7071067811865474600, -0.7071067811865474600, 0.0000000000000000000 ) ) ;
#36 = CC_DESIGN_APPROVAL ( #121, ( #315 ) ) ;
#37 = CALENDAR_DATE ( 2017, 9, 5 ) ;
#38 = DIRECTION ( 'NONE',  ( 0.0000000000000000000, -0.0000000000000000000, 1.000000000000000000 ) ) ;
#39 = CARTESIAN_POINT ( 'NONE',  ( -0.0000000000000000000, 25.00000000000000000, -25.00000000000000000 ) ) ;
#40 = EDGE_LOOP ( 'NONE', ( #129, #186, #223 ) ) ;
#41 = CARTESIAN_POINT ( 'NONE',  ( -25.00000000000000000, 25.00000000000000000, -25.00000000000000000 ) ) ;
#42 = LINE ( 'NONE', #216, #222 ) ;
#43 = ORIENTED_EDGE ( 'NONE', *, *, #31, .T. ) ;
#44 = ADVANCED_FACE ( 'NONE', ( #99 ), #209, .F. ) ;
#45 = DIRECTION ( 'NONE',  ( 0.0000000000000000000, 0.0000000000000000000, 1.000000000000000000 ) ) ;
#46 = DIRECTION ( 'NONE',  ( 0.0000000000000000000, 0.0000000000000000000, 1.000000000000000000 ) ) ;
#47 = CALENDAR_DATE ( 2017, 9, 5 ) ;
#48 = EDGE_CURVE ( 'NONE', #194, #103, #220, .T. ) ;
#49 = LINE ( 'NONE', #5, #55 ) ;
#50 =( NAMED_UNIT ( * ) PLANE_ANGLE_UNIT ( ) SI_UNIT ( $, .RADIAN. ) );
#51 = ORIENTED_EDGE ( 'NONE', *, *, #23, .T. ) ;
#52 = ORIENTED_EDGE ( 'NONE', *, *, #256, .F. ) ;
#53 = CALENDAR_DATE ( 2017, 9, 5 ) ;
#54 = PLANE ( 'NONE',  #229 ) ;
#55 = VECTOR ( 'NONE', #87, 1000.000000000000000 ) ;
#56 = CARTESIAN_POINT ( 'NONE',  ( 0.0000000000000000000, 0.0000000000000000000, 25.00000000000000000 ) ) ;
#57 = DIRECTION ( 'NONE',  ( 1.000000000000000000, 0.0000000000000000000, 0.0000000000000000000 ) ) ;
#58 = EDGE_LOOP ( 'NONE', ( #239, #296, #139, #98 ) ) ;
#59 = CC_DESIGN_SECURITY_CLASSIFICATION ( #315, ( #197 ) ) ;
#60 = ADVANCED_FACE ( 'NONE', ( #63 ), #54, .T. ) ;
#61 = DATE_AND_TIME ( #128, #201 ) ;
#62 = CARTESIAN_POINT ( 'NONE',  ( -25.00000000000000000, -25.00000000000000000, 25.00000000000000000 ) ) ;
#63 = FACE_OUTER_BOUND ( 'NONE', #40, .T. ) ;
#64 = EDGE_CURVE ( 'NONE', #318, #200, #113, .T. ) ;
#65 = CARTESIAN_POINT ( 'NONE',  ( 0.0000000000000000000, -25.00000000000000000, 25.00000000000000000 ) ) ;
#66 = FACE_OUTER_BOUND ( 'NONE', #149, .T. ) ;
#67 = APPROVAL_ROLE ( '' ) ;
#68 = VERTEX_POINT ( 'NONE', #234 ) ;
#69 = FACE_OUTER_BOUND ( 'NONE', #218, .T. ) ;
#70 = EDGE_CURVE ( 'NONE', #68, #176, #303, .T. ) ;
#71 = DATE_TIME_ROLE ( 'creation_date' ) ;
#72 = LINE ( 'NONE', #257, #320 ) ;
#73 = EDGE_CURVE ( 'NONE', #68, #103, #252, .T. ) ;
#74 = PERSON_AND_ORGANIZATION ( #86, #83 ) ;
#75 = FACE_OUTER_BOUND ( 'NONE', #291, .T. ) ;
#76 = DIRECTION ( 'NONE',  ( -0.7071067811865474600, 0.7071067811865474600, 0.0000000000000000000 ) ) ;
#77 = CLOSED_SHELL ( 'NONE', ( #306, #166, #137, #134, #111 ) ) ;
#78 = LINE ( 'NONE', #34, #267 ) ;
#79 = EDGE_CURVE ( 'NONE', #316, #194, #19, .T. ) ;
#80 = DIRECTION ( 'NONE',  ( 1.000000000000000000, 0.0000000000000000000, 0.0000000000000000000 ) ) ;
#81 = DIRECTION ( 'NONE',  ( 0.0000000000000000000, 1.000000000000000000, -0.0000000000000000000 ) ) ;
#82 = CARTESIAN_POINT ( 'NONE',  ( 25.00000000000000000, 25.00000000000000000, 25.00000000000000000 ) ) ;
#83 = ORGANIZATION ( 'UNSPECIFIED', 'UNSPECIFIED', '' ) ;
#84 = DIRECTION ( 'NONE',  ( 0.0000000000000000000, -0.0000000000000000000, 1.000000000000000000 ) ) ;
#85 = AXIS2_PLACEMENT_3D ( 'NONE', #16, #286, #163 ) ;
#86 = PERSON ( 'UNSPECIFIED', 'UNSPECIFIED', 'UNSPECIFIED', ('UNSPECIFIED'), ('UNSPECIFIED'), ('UNSPECIFIED') ) ;
#87 = DIRECTION ( 'NONE',  ( 0.0000000000000000000, 1.000000000000000000, -0.0000000000000000000 ) ) ;
#88 = CARTESIAN_POINT ( 'NONE',  ( -25.00000000000000000, 25.00000000000000000, -25.00000000000000000 ) ) ;
#89 = EDGE_LOOP ( 'NONE', ( #285, #297, #43, #132 ) ) ;
#90 = PERSON_AND_ORGANIZATION ( #86, #83 ) ;
#91 = PLANE ( 'NONE',  #154 ) ;
#92 = VECTOR ( 'NONE', #135, 1000.000000000000000 ) ;
#93 = ADVANCED_FACE ( 'NONE', ( #6 ), #187, .F. ) ;
#94 = DIRECTION ( 'NONE',  ( -1.000000000000000000, 0.0000000000000000000, 0.0000000000000000000 ) ) ;
#95 = DATE_TIME_ROLE ( 'classification_date' ) ;
#96 = EDGE_CURVE ( 'NONE', #200, #249, #142, .T. ) ;
#97 = PERSON_AND_ORGANIZATION ( #86, #83 ) ;
#98 = ORIENTED_EDGE ( 'NONE', *, *, #79, .T. ) ;
#99 = FACE_OUTER_BOUND ( 'NONE', #2, .T. ) ;
#100 = CARTESIAN_POINT ( 'NONE',  ( 0.0000000000000000000, 0.0000000000000000000, 0.0000000000000000000 ) ) ;
#101 = EDGE_CURVE ( 'NONE', #318, #181, #72, .T. ) ;
#102 = AXIS2_PLACEMENT_3D ( 'NONE', #56, #307, #280 ) ;
#103 = VERTEX_POINT ( 'NONE', #188 ) ;
#104 = COORDINATED_UNIVERSAL_TIME_OFFSET ( 5, 0, .BEHIND. ) ;
#105 = ORIENTED_EDGE ( 'NONE', *, *, #109, .F. ) ;
#106 = CC_DESIGN_PERSON_AND_ORGANIZATION_ASSIGNMENT ( #240, #287, ( #288 ) ) ;
#107 = DIRECTION ( 'NONE',  ( -0.0000000000000000000, -0.0000000000000000000, -1.000000000000000000 ) ) ;
#108 = VECTOR ( 'NONE', #305, 1000.000000000000000 ) ;
#109 = EDGE_CURVE ( 'NONE', #191, #318, #49, .T. ) ;
#110 = CARTESIAN_POINT ( 'NONE',  ( -25.00000000000000000, 0.0000000000000000000, -25.00000000000000000 ) ) ;
#111 = ADVANCED_FACE ( 'NONE', ( #66 ), #138, .F. ) ;
#112 = PLANE ( 'NONE',  #102 ) ;
#113 = LINE ( 'NONE', #8, #272 ) ;
#114 = EDGE_LOOP ( 'NONE', ( #52, #246, #255, #127 ) ) ;
#115 = APPROVAL_ROLE ( '' ) ;
#116 = APPROVAL ( #122, 'UNSPECIFIED' ) ;
#117 = ORIENTED_EDGE ( 'NONE', *, *, #9, .T. ) ;
#118 = AXIS2_PLACEMENT_3D ( 'NONE', #171, #196, #57 ) ;
#119 = DATE_AND_TIME ( #148, #289 ) ;
#120 = ORIENTED_EDGE ( 'NONE', *, *, #175, .F. ) ;
#121 = APPROVAL ( #150, 'UNSPECIFIED' ) ;
#122 = APPROVAL_STATUS ( 'not_yet_approved' ) ;
#123 = MANIFOLD_SOLID_BREP ( 'Boss-Extrude3', #233 ) ;
#124 = SECURITY_CLASSIFICATION_LEVEL ( 'unclassified' ) ;
#125 = VECTOR ( 'NONE', #161, 1000.000000000000000 ) ;
#126 = EDGE_CURVE ( 'NONE', #316, #68, #313, .T. ) ;
#127 = ORIENTED_EDGE ( 'NONE', *, *, #101, .T. ) ;
#128 = CALENDAR_DATE ( 2017, 9, 5 ) ;
#129 = ORIENTED_EDGE ( 'NONE', *, *, #126, .T. ) ;
#130 = CARTESIAN_POINT ( 'NONE',  ( 0.0000000000000000000, 0.0000000000000000000, -25.00000000000000000 ) ) ;
#131 = CARTESIAN_POINT ( 'NONE',  ( 25.00000000000000000, 25.00000000000000000, -25.00000000000000000 ) ) ;
#132 = ORIENTED_EDGE ( 'NONE', *, *, #281, .T. ) ;
#133 = DIRECTION ( 'NONE',  ( 1.000000000000000000, 0.0000000000000000000, 0.0000000000000000000 ) ) ;
#134 = ADVANCED_FACE ( 'NONE', ( #75 ), #237, .T. ) ;
#135 = DIRECTION ( 'NONE',  ( -0.0000000000000000000, -0.0000000000000000000, -1.000000000000000000 ) ) ;
#136 = DIRECTION ( 'NONE',  ( 0.7071067811865474600, -0.7071067811865474600, 0.0000000000000000000 ) ) ;
#137 = ADVANCED_FACE ( 'NONE', ( #258 ), #112, .T. ) ;
#138 = PLANE ( 'NONE',  #85 ) ;
#139 = ORIENTED_EDGE ( 'NONE', *, *, #126, .F. ) ;
#140 = DIRECTION ( 'NONE',  ( 0.0000000000000000000, 1.000000000000000000, 0.0000000000000000000 ) ) ;
#141 = DIRECTION ( 'NONE',  ( -0.0000000000000000000, -0.0000000000000000000, -1.000000000000000000 ) ) ;
#142 = LINE ( 'NONE', #183, #215 ) ;
#143 = AXIS2_PLACEMENT_3D ( 'NONE', #130, #158, #80 ) ;
#144 = COORDINATED_UNIVERSAL_TIME_OFFSET ( 5, 0, .BEHIND. ) ;
#145 = VECTOR ( 'NONE', #136, 1000.000000000000100 ) ;
#146 = AXIS2_PLACEMENT_3D ( 'NONE', #18, #94, #174 ) ;
#147 = ORIENTED_EDGE ( 'NONE', *, *, #96, .T. ) ;
#148 = CALENDAR_DATE ( 2017, 9, 5 ) ;
#149 = EDGE_LOOP ( 'NONE', ( #30, #24, #253 ) ) ;
#150 = APPROVAL_STATUS ( 'not_yet_approved' ) ;
#151 = PERSON_AND_ORGANIZATION_ROLE ( 'classification_officer' ) ;
#152 = CC_DESIGN_DATE_AND_TIME_ASSIGNMENT ( #119, #71, ( #288 ) ) ;
#153 = SHAPE_DEFINITION_REPRESENTATION ( #204, #203 ) ;
#154 = AXIS2_PLACEMENT_3D ( 'NONE', #65, #14, #38 ) ;
#155 = ORIENTED_EDGE ( 'NONE', *, *, #185, .F. ) ;
#156 = APPROVAL_PERSON_ORGANIZATION ( #32, #116, #21 ) ;
#157 = VECTOR ( 'NONE', #302, 1000.000000000000100 ) ;
#158 = DIRECTION ( 'NONE',  ( -0.0000000000000000000, 0.0000000000000000000, 1.000000000000000000 ) ) ;
#159 = DIRECTION ( 'NONE',  ( -0.0000000000000000000, -0.0000000000000000000, -1.000000000000000000 ) ) ;
#160 = CARTESIAN_POINT ( 'NONE',  ( 0.0000000000000000000, 0.0000000000000000000, 25.00000000000000000 ) ) ;
#161 = DIRECTION ( 'NONE',  ( 1.000000000000000000, 0.0000000000000000000, 0.0000000000000000000 ) ) ;
#162 = PERSON_AND_ORGANIZATION ( #86, #83 ) ;
#163 = DIRECTION ( 'NONE',  ( 1.000000000000000000, 0.0000000000000000000, 0.0000000000000000000 ) ) ;
#164 = CARTESIAN_POINT ( 'NONE',  ( 0.0000000000000000000, 0.0000000000000000000, 25.00000000000000000 ) ) ;
#165 = UNCERTAINTY_MEASURE_WITH_UNIT (LENGTH_MEASURE( 1.000000000000000100E-005 ), #179, 'distance_accuracy_value', 'NONE');
#166 = ADVANCED_FACE ( 'NONE', ( #198 ), #91, .F. ) ;
#167 = CC_DESIGN_APPROVAL ( #116, ( #197 ) ) ;
#168 = CARTESIAN_POINT ( 'NONE',  ( -25.00000000000000000, 0.0000000000000000000, 25.00000000000000000 ) ) ;
#169 = ORIENTED_EDGE ( 'NONE', *, *, #64, .F. ) ;
#170 = FACE_OUTER_BOUND ( 'NONE', #114, .T. ) ;
#171 = CARTESIAN_POINT ( 'NONE',  ( 0.0000000000000000000, 0.0000000000000000000, 25.00000000000000000 ) ) ;
#172 = ORIENTED_EDGE ( 'NONE', *, *, #101, .F. ) ;
#173 = LOCAL_TIME ( 14, 59, 54.00000000000000000, #180 ) ;
#174 = DIRECTION ( 'NONE',  ( 0.0000000000000000000, 0.0000000000000000000, 1.000000000000000000 ) ) ;
#175 = EDGE_CURVE ( 'NONE', #181, #249, #42, .T. ) ;
#176 = VERTEX_POINT ( 'NONE', #82 ) ;
#177 = COORDINATED_UNIVERSAL_TIME_OFFSET ( 5, 0, .BEHIND. ) ;
#178 = ORIENTED_EDGE ( 'NONE', *, *, #64, .T. ) ;
#179 =( LENGTH_UNIT ( ) NAMED_UNIT ( * ) SI_UNIT ( .MILLI., .METRE. ) );
#180 = COORDINATED_UNIVERSAL_TIME_OFFSET ( 5, 0, .BEHIND. ) ;
#181 = VERTEX_POINT ( 'NONE', #41 ) ;
#182 = LINE ( 'NONE', #300, #125 ) ;
#183 = CARTESIAN_POINT ( 'NONE',  ( 25.00000000000000000, -25.00000000000000000, 25.00000000000000000 ) ) ;
#184 = DIRECTION ( 'NONE',  ( 1.000000000000000000, 0.0000000000000000000, 0.0000000000000000000 ) ) ;
#185 = EDGE_CURVE ( 'NONE', #103, #26, #12, .T. ) ;
#186 = ORIENTED_EDGE ( 'NONE', *, *, #70, .T. ) ;
#187 = PLANE ( 'NONE',  #290 ) ;
#188 = CARTESIAN_POINT ( 'NONE',  ( 25.00000000000000000, -25.00000000000000000, -25.00000000000000000 ) ) ;
#189 = AXIS2_PLACEMENT_3D ( 'NONE', #100, #45, #269 ) ;
#190 = PRODUCT ( 'Web Model 48864_48862', 'Web Model 48864_48862', '', ( #225 ) ) ;
#191 = VERTEX_POINT ( 'NONE', #279 ) ;
#192 = DIRECTION ( 'NONE',  ( 0.0000000000000000000, 1.000000000000000000, -0.0000000000000000000 ) ) ;
#193 = COORDINATED_UNIVERSAL_TIME_OFFSET ( 5, 0, .BEHIND. ) ;
#194 = VERTEX_POINT ( 'NONE', #88 ) ;
#195 = CARTESIAN_POINT ( 'NONE',  ( 25.00000000000000000, -25.00000000000000000, -25.00000000000000000 ) ) ;
#196 = DIRECTION ( 'NONE',  ( -0.0000000000000000000, 0.0000000000000000000, 1.000000000000000000 ) ) ;
#197 = PRODUCT_DEFINITION_FORMATION_WITH_SPECIFIED_SOURCE ( 'ANY', '', #190, .NOT_KNOWN. ) ;
#198 = FACE_OUTER_BOUND ( 'NONE', #202, .T. ) ;
#199 = APPLICATION_PROTOCOL_DEFINITION ( 'international standard', 'config_control_design', 1994, #271 ) ;
#200 = VERTEX_POINT ( 'NONE', #11 ) ;
#201 = LOCAL_TIME ( 14, 59, 54.00000000000000000, #144 ) ;
#202 = EDGE_LOOP ( 'NONE', ( #117, #308, #310, #244 ) ) ;
#203 = ADVANCED_BREP_SHAPE_REPRESENTATION ( 'Web Model 48864_48862', ( #227, #123, #189 ), #13 ) ;
#204 = PRODUCT_DEFINITION_SHAPE ( 'NONE', 'NONE',  #288 ) ;
#205 = CARTESIAN_POINT ( 'NONE',  ( -25.00000000000000000, 25.00000000000000000, 25.00000000000000000 ) ) ;
#206 = LINE ( 'NONE', #298, #33 ) ;
#207 = PRODUCT_RELATED_PRODUCT_CATEGORY ( 'detail', '', ( #190 ) ) ;
#208 = VECTOR ( 'NONE', #192, 1000.000000000000000 ) ;
#209 = PLANE ( 'NONE',  #143 ) ;
#210 = APPROVAL_PERSON_ORGANIZATION ( #162, #121, #115 ) ;
#211 = VECTOR ( 'NONE', #107, 1000.000000000000000 ) ;
#212 = CARTESIAN_POINT ( 'NONE',  ( 25.00000000000000000, 0.0000000000000000000, 25.00000000000000000 ) ) ;
#213 = DATE_AND_TIME ( #47, #274 ) ;
#214 = CARTESIAN_POINT ( 'NONE',  ( 25.00000000000000000, 25.00000000000000000, 25.00000000000000000 ) ) ;
#215 = VECTOR ( 'NONE', #278, 1000.000000000000000 ) ;
#216 = CARTESIAN_POINT ( 'NONE',  ( -0.0000000000000000000, 0.0000000000000000000, -25.00000000000000000 ) ) ;
#217 = CARTESIAN_POINT ( 'NONE',  ( -25.00000000000000000, -25.00000000000000000, -25.00000000000000000 ) ) ;
#218 = EDGE_LOOP ( 'NONE', ( #293, #230, #224, #4 ) ) ;
#219 = CARTESIAN_POINT ( 'NONE',  ( 25.00000000000000000, 0.0000000000000000000, -25.00000000000000000 ) ) ;
#220 = LINE ( 'NONE', #235, #157 ) ;
#221 = EDGE_CURVE ( 'NONE', #191, #264, #232, .T. ) ;
#222 = VECTOR ( 'NONE', #265, 1000.000000000000100 ) ;
#223 = ORIENTED_EDGE ( 'NONE', *, *, #31, .F. ) ;
#224 = ORIENTED_EDGE ( 'NONE', *, *, #70, .F. ) ;
#225 = MECHANICAL_CONTEXT ( 'NONE', #271, 'mechanical' ) ;
#226 = CC_DESIGN_PERSON_AND_ORGANIZATION_ASSIGNMENT ( #90, #294, ( #197 ) ) ;
#227 = MANIFOLD_SOLID_BREP ( 'Boss-Extrude2', #77 ) ;
#228 = DATE_AND_TIME ( #53, #17 ) ;
#229 = AXIS2_PLACEMENT_3D ( 'NONE', #160, #7, #184 ) ;
#230 = ORIENTED_EDGE ( 'NONE', *, *, #281, .F. ) ;
#231 = DIRECTION ( 'NONE',  ( 0.7071067811865475700, 0.7071067811865475700, -0.0000000000000000000 ) ) ;
#232 = LINE ( 'NONE', #62, #317 ) ;
#233 = CLOSED_SHELL ( 'NONE', ( #93, #312, #301, #60, #44 ) ) ;
#234 = CARTESIAN_POINT ( 'NONE',  ( 25.00000000000000000, -25.00000000000000000, 25.00000000000000000 ) ) ;
#235 = CARTESIAN_POINT ( 'NONE',  ( -0.0000000000000000000, 0.0000000000000000000, -25.00000000000000000 ) ) ;
#236 = PERSON_AND_ORGANIZATION ( #86, #83 ) ;
#237 = PLANE ( 'NONE',  #118 ) ;
#238 = CARTESIAN_POINT ( 'NONE',  ( 0.0000000000000000000, 25.00000000000000000, 25.00000000000000000 ) ) ;
#239 = ORIENTED_EDGE ( 'NONE', *, *, #48, .T. ) ;
#240 = PERSON_AND_ORGANIZATION ( #86, #83 ) ;
#241 = EDGE_LOOP ( 'NONE', ( #120, #172, #178, #147 ) ) ;
#242 = DIRECTION ( 'NONE',  ( -0.0000000000000000000, -0.0000000000000000000, -1.000000000000000000 ) ) ;
#243 = CC_DESIGN_DATE_AND_TIME_ASSIGNMENT ( #228, #95, ( #315 ) ) ;
#244 = ORIENTED_EDGE ( 'NONE', *, *, #221, .T. ) ;
#245 = PERSON_AND_ORGANIZATION_ROLE ( 'design_supplier' ) ;
#246 = ORIENTED_EDGE ( 'NONE', *, *, #221, .F. ) ;
#247 = VECTOR ( 'NONE', #242, 1000.000000000000000 ) ;
#248 = APPROVAL ( #273, 'UNSPECIFIED' ) ;
#249 = VERTEX_POINT ( 'NONE', #195 ) ;
#250 = PERSON_AND_ORGANIZATION_ROLE ( 'design_owner' ) ;
#251 = PLANE ( 'NONE',  #146 ) ;
#252 = LINE ( 'NONE', #260, #92 ) ;
#253 = ORIENTED_EDGE ( 'NONE', *, *, #9, .F. ) ;
#254 = APPROVAL_DATE_TIME ( #213, #248 ) ;
#255 = ORIENTED_EDGE ( 'NONE', *, *, #109, .T. ) ;
#256 = EDGE_CURVE ( 'NONE', #264, #181, #270, .T. ) ;
#257 = CARTESIAN_POINT ( 'NONE',  ( -25.00000000000000000, 25.00000000000000000, 25.00000000000000000 ) ) ;
#258 = FACE_OUTER_BOUND ( 'NONE', #241, .T. ) ;
#259 = AXIS2_PLACEMENT_3D ( 'NONE', #168, #15, #46 ) ;
#260 = CARTESIAN_POINT ( 'NONE',  ( 25.00000000000000000, -25.00000000000000000, 25.00000000000000000 ) ) ;
#261 = ORIENTED_EDGE ( 'NONE', *, *, #268, .T. ) ;
#262 = PLANE ( 'NONE',  #259 ) ;
#263 = FACE_OUTER_BOUND ( 'NONE', #89, .T. ) ;
#264 = VERTEX_POINT ( 'NONE', #217 ) ;
#265 = DIRECTION ( 'NONE',  ( 0.7071067811865474600, -0.7071067811865474600, 0.0000000000000000000 ) ) ;
#266 = DIRECTION ( 'NONE',  ( 1.000000000000000000, 0.0000000000000000000, 0.0000000000000000000 ) ) ;
#267 = VECTOR ( 'NONE', #133, 1000.000000000000000 ) ;
#268 = EDGE_CURVE ( 'NONE', #194, #26, #292, .T. ) ;
#269 = DIRECTION ( 'NONE',  ( 1.000000000000000000, 0.0000000000000000000, 0.0000000000000000000 ) ) ;
#270 = LINE ( 'NONE', #110, #208 ) ;
#271 = APPLICATION_CONTEXT ( 'configuration controlled 3d designs of mechanical parts and assemblies' ) ;
#272 = VECTOR ( 'NONE', #35, 1000.000000000000100 ) ;
#273 = APPROVAL_STATUS ( 'not_yet_approved' ) ;
#274 = LOCAL_TIME ( 14, 59, 54.00000000000000000, #104 ) ;
#275 = VECTOR ( 'NONE', #266, 1000.000000000000000 ) ;
#276 = VECTOR ( 'NONE', #81, 1000.000000000000000 ) ;
#277 = DIRECTION ( 'NONE',  ( 1.000000000000000000, 0.0000000000000000000, 0.0000000000000000000 ) ) ;
#278 = DIRECTION ( 'NONE',  ( -0.0000000000000000000, -0.0000000000000000000, -1.000000000000000000 ) ) ;
#279 = CARTESIAN_POINT ( 'NONE',  ( -25.00000000000000000, -25.00000000000000000, 25.00000000000000000 ) ) ;
#280 = DIRECTION ( 'NONE',  ( -0.7071067811865474600, 0.7071067811865474600, 0.0000000000000000000 ) ) ;
#281 = EDGE_CURVE ( 'NONE', #176, #26, #3, .T. ) ;
#282 = ORIENTED_EDGE ( 'NONE', *, *, #48, .F. ) ;
#283 = PLANE ( 'NONE',  #319 ) ;
#284 = APPROVAL_DATE_TIME ( #61, #116 ) ;
#285 = ORIENTED_EDGE ( 'NONE', *, *, #268, .F. ) ;
#286 = DIRECTION ( 'NONE',  ( -0.0000000000000000000, 0.0000000000000000000, 1.000000000000000000 ) ) ;
#287 = PERSON_AND_ORGANIZATION_ROLE ( 'creator' ) ;
#288 = PRODUCT_DEFINITION ( 'UNKNOWN', '', #197, #29 ) ;
#289 = LOCAL_TIME ( 14, 59, 54.00000000000000000, #177 ) ;
#290 = AXIS2_PLACEMENT_3D ( 'NONE', #10, #231, #76 ) ;
#291 = EDGE_LOOP ( 'NONE', ( #105, #51, #169 ) ) ;
#292 = LINE ( 'NONE', #39, #275 ) ;
#293 = ORIENTED_EDGE ( 'NONE', *, *, #185, .T. ) ;
#294 = PERSON_AND_ORGANIZATION_ROLE ( 'creator' ) ;
#295 = CARTESIAN_POINT ( 'NONE',  ( -25.00000000000000000, 25.00000000000000000, 25.00000000000000000 ) ) ;
#296 = ORIENTED_EDGE ( 'NONE', *, *, #73, .F. ) ;
#297 = ORIENTED_EDGE ( 'NONE', *, *, #79, .F. ) ;
#298 = CARTESIAN_POINT ( 'NONE',  ( 0.0000000000000000000, -25.00000000000000000, 25.00000000000000000 ) ) ;
#299 = CC_DESIGN_APPROVAL ( #248, ( #288 ) ) ;
#300 = CARTESIAN_POINT ( 'NONE',  ( 0.0000000000000000000, 25.00000000000000000, 25.00000000000000000 ) ) ;
#301 = ADVANCED_FACE ( 'NONE', ( #263 ), #283, .T. ) ;
#302 = DIRECTION ( 'NONE',  ( 0.7071067811865474600, -0.7071067811865474600, 0.0000000000000000000 ) ) ;
#303 = LINE ( 'NONE', #212, #276 ) ;
#304 = CARTESIAN_POINT ( 'NONE',  ( -25.00000000000000000, 25.00000000000000000, 25.00000000000000000 ) ) ;
#305 = DIRECTION ( 'NONE',  ( 0.0000000000000000000, 1.000000000000000000, -0.0000000000000000000 ) ) ;
#306 = ADVANCED_FACE ( 'NONE', ( #170 ), #262, .T. ) ;
#307 = DIRECTION ( 'NONE',  ( 0.7071067811865475700, 0.7071067811865475700, -0.0000000000000000000 ) ) ;
#308 = ORIENTED_EDGE ( 'NONE', *, *, #96, .F. ) ;
#309 = APPROVAL_DATE_TIME ( #28, #121 ) ;
#310 = ORIENTED_EDGE ( 'NONE', *, *, #23, .F. ) ;
#311 = CC_DESIGN_PERSON_AND_ORGANIZATION_ASSIGNMENT ( #74, #151, ( #315 ) ) ;
#312 = ADVANCED_FACE ( 'NONE', ( #69 ), #251, .F. ) ;
#313 = LINE ( 'NONE', #164, #145 ) ;
#314 =( NAMED_UNIT ( * ) SI_UNIT ( $, .STERADIAN. ) SOLID_ANGLE_UNIT ( ) );
#315 = SECURITY_CLASSIFICATION ( '', '', #124 ) ;
#316 = VERTEX_POINT ( 'NONE', #205 ) ;
#317 = VECTOR ( 'NONE', #141, 1000.000000000000000 ) ;
#318 = VERTEX_POINT ( 'NONE', #295 ) ;
#319 = AXIS2_PLACEMENT_3D ( 'NONE', #238, #140, #84 ) ;
#320 = VECTOR ( 'NONE', #159, 1000.000000000000000 ) ;
#321 = APPLICATION_PROTOCOL_DEFINITION ( 'international standard', 'config_control_design', 1994, #27 ) ;
ENDSEC;
END-ISO-10303-21;
