ISO-10303-21;
HEADER;
FILE_DESCRIPTION (( 'STEP AP203' ),
    '1' );
FILE_NAME ('Web Model 17200_17200.step',
    '2021-04-14T20:12:11',
    ( '' ),
    ( '' ),
    'SwSTEP 2.0',
    'SolidWorks 2018',
    '' );
FILE_SCHEMA (( 'CONFIG_CONTROL_DESIGN' ));
ENDSEC;

DATA;
#1 = SECURITY_CLASSIFICATION_LEVEL ( 'unclassified' ) ;
#2 = SECURITY_CLASSIFICATION ( '', '', #1 ) ;
#3 =( GEOMETRIC_REPRESENTATION_CONTEXT ( 3 ) GLOBAL_UNCERTAINTY_ASSIGNED_CONTEXT ( ( #78 ) ) GLOBAL_UNIT_ASSIGNED_CONTEXT ( ( #160, #98, #85 ) ) REPRESENTATION_CONTEXT ( 'NONE', 'WORKASPACE' ) );
#4 = CARTESIAN_POINT ( 'NONE',  ( 0.000000000000000000, 0.000000000000000000, 2.000000000000000000 ) ) ;
#5 = CC_DESIGN_DATE_AND_TIME_ASSIGNMENT ( #86, #141, ( #47 ) ) ;
#6 = CYLINDRICAL_SURFACE ( 'NONE', #173, 15.00000000000000000 ) ;
#7 = CARTESIAN_POINT ( 'NONE',  ( -15.00000000000000000, 0.000000000000000000, 2.000000000000000000 ) ) ;
#8 = CC_DESIGN_PERSON_AND_ORGANIZATION_ASSIGNMENT ( #57, #113, ( #35 ) ) ;
#9 = APPROVAL_PERSON_ORGANIZATION ( #21, #23, #165 ) ;
#10 = LINE ( 'NONE', #18, #65 ) ;
#11 = PRODUCT_DEFINITION_FORMATION_WITH_SPECIFIED_SOURCE ( 'ANY', '', #35, .NOT_KNOWN. ) ;
#12 = DIRECTION ( 'NONE',  ( 0.000000000000000000, 0.000000000000000000, 1.000000000000000000 ) ) ;
#13 = EDGE_LOOP ( 'NONE', ( #49, #94, #96, #27 ) ) ;
#14 = CC_DESIGN_DATE_AND_TIME_ASSIGNMENT ( #145, #125, ( #2 ) ) ;
#15 = PERSON_AND_ORGANIZATION ( #46, #97 ) ;
#16 = MECHANICAL_CONTEXT ( 'NONE', #149, 'mechanical' ) ;
#17 = CARTESIAN_POINT ( 'NONE',  ( 15.00000000000000000, 1.836970198721029589E-15, 2.000000000000000000 ) ) ;
#18 = CARTESIAN_POINT ( 'NONE',  ( 15.00000000000000000, 1.836970198721029589E-15, 2.000000000000000000 ) ) ;
#19 = VERTEX_POINT ( 'NONE', #169 ) ;
#20 = APPROVAL ( #112, 'UNSPECIFIED' ) ;
#21 = PERSON_AND_ORGANIZATION ( #46, #97 ) ;
#22 = CALENDAR_DATE ( 2021, 14, 4 ) ;
#23 = APPROVAL ( #89, 'UNSPECIFIED' ) ;
#24 = ORIENTED_EDGE ( 'NONE', *, *, #60, .T. ) ;
#25 = APPROVAL_PERSON_ORGANIZATION ( #68, #20, #73 ) ;
#26 = PERSON_AND_ORGANIZATION_ROLE ( 'design_supplier' ) ;
#27 = ORIENTED_EDGE ( 'NONE', *, *, #137, .F. ) ;
#28 = CALENDAR_DATE ( 2021, 14, 4 ) ;
#29 = ADVANCED_FACE ( 'NONE', ( #156 ), #105, .T. ) ;
#30 = APPLICATION_PROTOCOL_DEFINITION ( 'international standard', 'config_control_design', 1994, #72 ) ;
#31 = DIRECTION ( 'NONE',  ( 0.000000000000000000, 0.000000000000000000, 1.000000000000000000 ) ) ;
#32 = DIRECTION ( 'NONE',  ( 1.000000000000000000, 0.000000000000000000, -0.000000000000000000 ) ) ;
#33 = EDGE_CURVE ( 'NONE', #76, #100, #10, .T. ) ;
#34 = CARTESIAN_POINT ( 'NONE',  ( -15.00000000000000000, 0.000000000000000000, 0.000000000000000000 ) ) ;
#35 = PRODUCT ( 'Web Model 17200_17200', 'Web Model 17200_17200', '', ( #16 ) ) ;
#36 = SHAPE_DEFINITION_REPRESENTATION ( #121, #95 ) ;
#37 = DIRECTION ( 'NONE',  ( 1.000000000000000000, 0.000000000000000000, 0.000000000000000000 ) ) ;
#38 = DIRECTION ( 'NONE',  ( -0.000000000000000000, -0.000000000000000000, -1.000000000000000000 ) ) ;
#39 = AXIS2_PLACEMENT_3D ( 'NONE', #130, #31, #32 ) ;
#40 = VECTOR ( 'NONE', #38, 1000.000000000000000 ) ;
#41 = PERSON_AND_ORGANIZATION_ROLE ( 'classification_officer' ) ;
#42 = CIRCLE ( 'NONE', #71, 15.00000000000000000 ) ;
#43 = MANIFOLD_SOLID_BREP ( 'Boss-Extrude1', #143 ) ;
#44 = PLANE ( 'NONE',  #62 ) ;
#45 = CALENDAR_DATE ( 2021, 14, 4 ) ;
#46 = PERSON ( 'UNSPECIFIED', 'UNSPECIFIED', 'UNSPECIFIED', ('UNSPECIFIED'), ('UNSPECIFIED'), ('UNSPECIFIED') ) ;
#47 = PRODUCT_DEFINITION ( 'UNKNOWN', '', #11, #161 ) ;
#48 = FACE_OUTER_BOUND ( 'NONE', #13, .T. ) ;
#49 = ORIENTED_EDGE ( 'NONE', *, *, #60, .F. ) ;
#50 = CC_DESIGN_PERSON_AND_ORGANIZATION_ASSIGNMENT ( #15, #26, ( #11 ) ) ;
#51 = ORIENTED_EDGE ( 'NONE', *, *, #110, .F. ) ;
#52 = DIRECTION ( 'NONE',  ( 0.000000000000000000, 0.000000000000000000, 1.000000000000000000 ) ) ;
#53 = APPROVAL_DATE_TIME ( #79, #136 ) ;
#54 = ORIENTED_EDGE ( 'NONE', *, *, #138, .F. ) ;
#55 = APPROVAL_STATUS ( 'not_yet_approved' ) ;
#56 = COORDINATED_UNIVERSAL_TIME_OFFSET ( 5, 0, .BEHIND. ) ;
#57 = PERSON_AND_ORGANIZATION ( #46, #97 ) ;
#58 = ORIENTED_EDGE ( 'NONE', *, *, #138, .T. ) ;
#59 = DIRECTION ( 'NONE',  ( 1.000000000000000000, 0.000000000000000000, 0.000000000000000000 ) ) ;
#60 = EDGE_CURVE ( 'NONE', #76, #19, #42, .T. ) ;
#61 = DIRECTION ( 'NONE',  ( 0.000000000000000000, 0.000000000000000000, 1.000000000000000000 ) ) ;
#62 = AXIS2_PLACEMENT_3D ( 'NONE', #152, #12, #70 ) ;
#63 = DIRECTION ( 'NONE',  ( -0.000000000000000000, -0.000000000000000000, -1.000000000000000000 ) ) ;
#64 = EDGE_CURVE ( 'NONE', #119, #100, #166, .T. ) ;
#65 = VECTOR ( 'NONE', #154, 1000.000000000000000 ) ;
#66 = DIRECTION ( 'NONE',  ( 0.000000000000000000, 0.000000000000000000, 1.000000000000000000 ) ) ;
#67 = CC_DESIGN_PERSON_AND_ORGANIZATION_ASSIGNMENT ( #74, #99, ( #47 ) ) ;
#68 = PERSON_AND_ORGANIZATION ( #46, #97 ) ;
#69 = EDGE_LOOP ( 'NONE', ( #132, #51 ) ) ;
#70 = DIRECTION ( 'NONE',  ( 1.000000000000000000, 0.000000000000000000, -0.000000000000000000 ) ) ;
#71 = AXIS2_PLACEMENT_3D ( 'NONE', #157, #61, #75 ) ;
#72 = APPLICATION_CONTEXT ( 'configuration controlled 3d designs of mechanical parts and assemblies' ) ;
#73 = APPROVAL_ROLE ( '' ) ;
#74 = PERSON_AND_ORGANIZATION ( #46, #97 ) ;
#75 = DIRECTION ( 'NONE',  ( 1.000000000000000000, 0.000000000000000000, 0.000000000000000000 ) ) ;
#76 = VERTEX_POINT ( 'NONE', #17 ) ;
#77 = DIRECTION ( 'NONE',  ( 0.000000000000000000, 0.000000000000000000, 1.000000000000000000 ) ) ;
#78 = UNCERTAINTY_MEASURE_WITH_UNIT (LENGTH_MEASURE( 1.000000000000000082E-05 ), #160, 'distance_accuracy_value', 'NONE');
#79 = DATE_AND_TIME ( #131, #164 ) ;
#80 = DIRECTION ( 'NONE',  ( 1.000000000000000000, 0.000000000000000000, 0.000000000000000000 ) ) ;
#81 = CARTESIAN_POINT ( 'NONE',  ( 0.000000000000000000, 0.000000000000000000, 2.000000000000000000 ) ) ;
#82 = CC_DESIGN_APPROVAL ( #20, ( #47 ) ) ;
#83 = DATE_AND_TIME ( #28, #153 ) ;
#84 = FACE_OUTER_BOUND ( 'NONE', #69, .T. ) ;
#85 =( NAMED_UNIT ( * ) SI_UNIT ( $, .STERADIAN. ) SOLID_ANGLE_UNIT ( ) );
#86 = DATE_AND_TIME ( #22, #118 ) ;
#87 = CIRCLE ( 'NONE', #102, 15.00000000000000000 ) ;
#88 = DIRECTION ( 'NONE',  ( 1.000000000000000000, 0.000000000000000000, 0.000000000000000000 ) ) ;
#89 = APPROVAL_STATUS ( 'not_yet_approved' ) ;
#90 = LOCAL_TIME ( 16, 12, 11.00000000000000000, #120 ) ;
#91 = EDGE_LOOP ( 'NONE', ( #58, #24 ) ) ;
#92 = APPROVAL_DATE_TIME ( #83, #23 ) ;
#93 = COORDINATED_UNIVERSAL_TIME_OFFSET ( 5, 0, .BEHIND. ) ;
#94 = ORIENTED_EDGE ( 'NONE', *, *, #33, .T. ) ;
#95 = ADVANCED_BREP_SHAPE_REPRESENTATION ( 'Web Model 17200_17200', ( #43, #109 ), #3 ) ;
#96 = ORIENTED_EDGE ( 'NONE', *, *, #110, .T. ) ;
#97 = ORGANIZATION ( 'UNSPECIFIED', 'UNSPECIFIED', '' ) ;
#98 =( NAMED_UNIT ( * ) PLANE_ANGLE_UNIT ( ) SI_UNIT ( $, .RADIAN. ) );
#99 = PERSON_AND_ORGANIZATION_ROLE ( 'creator' ) ;
#100 = VERTEX_POINT ( 'NONE', #103 ) ;
#101 = CC_DESIGN_PERSON_AND_ORGANIZATION_ASSIGNMENT ( #124, #140, ( #11 ) ) ;
#102 = AXIS2_PLACEMENT_3D ( 'NONE', #139, #52, #37 ) ;
#103 = CARTESIAN_POINT ( 'NONE',  ( 15.00000000000000000, 1.836970198721029589E-15, 0.000000000000000000 ) ) ;
#104 = EDGE_LOOP ( 'NONE', ( #116, #54, #159, #123 ) ) ;
#105 = PLANE ( 'NONE',  #39 ) ;
#106 = CC_DESIGN_APPROVAL ( #136, ( #11 ) ) ;
#107 = APPROVAL_DATE_TIME ( #168, #20 ) ;
#108 = APPLICATION_PROTOCOL_DEFINITION ( 'international standard', 'config_control_design', 1994, #149 ) ;
#109 = AXIS2_PLACEMENT_3D ( 'NONE', #150, #162, #88 ) ;
#110 = EDGE_CURVE ( 'NONE', #100, #119, #115, .T. ) ;
#111 = CALENDAR_DATE ( 2021, 14, 4 ) ;
#112 = APPROVAL_STATUS ( 'not_yet_approved' ) ;
#113 = PERSON_AND_ORGANIZATION_ROLE ( 'design_owner' ) ;
#114 = ADVANCED_FACE ( 'NONE', ( #146 ), #174, .T. ) ;
#115 = CIRCLE ( 'NONE', #142, 15.00000000000000000 ) ;
#116 = ORIENTED_EDGE ( 'NONE', *, *, #33, .F. ) ;
#117 = DIRECTION ( 'NONE',  ( -1.000000000000000000, 0.000000000000000000, 0.000000000000000000 ) ) ;
#118 = LOCAL_TIME ( 16, 12, 11.00000000000000000, #93 ) ;
#119 = VERTEX_POINT ( 'NONE', #34 ) ;
#120 = COORDINATED_UNIVERSAL_TIME_OFFSET ( 5, 0, .BEHIND. ) ;
#121 = PRODUCT_DEFINITION_SHAPE ( 'NONE', 'NONE',  #47 ) ;
#122 = PRODUCT_RELATED_PRODUCT_CATEGORY ( 'detail', '', ( #35 ) ) ;
#123 = ORIENTED_EDGE ( 'NONE', *, *, #64, .T. ) ;
#124 = PERSON_AND_ORGANIZATION ( #46, #97 ) ;
#125 = DATE_TIME_ROLE ( 'classification_date' ) ;
#126 = APPROVAL_ROLE ( '' ) ;
#127 = ADVANCED_FACE ( 'NONE', ( #48 ), #6, .T. ) ;
#128 = COORDINATED_UNIVERSAL_TIME_OFFSET ( 5, 0, .BEHIND. ) ;
#129 = LOCAL_TIME ( 16, 12, 11.00000000000000000, #172 ) ;
#130 = CARTESIAN_POINT ( 'NONE',  ( 0.000000000000000000, 0.000000000000000000, 2.000000000000000000 ) ) ;
#131 = CALENDAR_DATE ( 2021, 14, 4 ) ;
#132 = ORIENTED_EDGE ( 'NONE', *, *, #64, .F. ) ;
#133 = AXIS2_PLACEMENT_3D ( 'NONE', #144, #77, #59 ) ;
#134 = PERSON_AND_ORGANIZATION ( #46, #97 ) ;
#135 = APPROVAL_PERSON_ORGANIZATION ( #134, #136, #126 ) ;
#136 = APPROVAL ( #55, 'UNSPECIFIED' ) ;
#137 = EDGE_CURVE ( 'NONE', #19, #119, #175, .T. ) ;
#138 = EDGE_CURVE ( 'NONE', #19, #76, #87, .T. ) ;
#139 = CARTESIAN_POINT ( 'NONE',  ( 0.000000000000000000, 0.000000000000000000, 2.000000000000000000 ) ) ;
#140 = PERSON_AND_ORGANIZATION_ROLE ( 'creator' ) ;
#141 = DATE_TIME_ROLE ( 'creation_date' ) ;
#142 = AXIS2_PLACEMENT_3D ( 'NONE', #147, #66, #80 ) ;
#143 = CLOSED_SHELL ( 'NONE', ( #127, #114, #29, #167 ) ) ;
#144 = CARTESIAN_POINT ( 'NONE',  ( 0.000000000000000000, 0.000000000000000000, 0.000000000000000000 ) ) ;
#145 = DATE_AND_TIME ( #45, #90 ) ;
#146 = FACE_OUTER_BOUND ( 'NONE', #104, .T. ) ;
#147 = CARTESIAN_POINT ( 'NONE',  ( 0.000000000000000000, 0.000000000000000000, 0.000000000000000000 ) ) ;
#148 = AXIS2_PLACEMENT_3D ( 'NONE', #4, #63, #117 ) ;
#149 = APPLICATION_CONTEXT ( 'configuration controlled 3d designs of mechanical parts and assemblies' ) ;
#150 = CARTESIAN_POINT ( 'NONE',  ( 0.000000000000000000, 0.000000000000000000, 0.000000000000000000 ) ) ;
#151 = CC_DESIGN_SECURITY_CLASSIFICATION ( #2, ( #11 ) ) ;
#152 = CARTESIAN_POINT ( 'NONE',  ( 0.000000000000000000, 0.000000000000000000, 0.000000000000000000 ) ) ;
#153 = LOCAL_TIME ( 16, 12, 11.00000000000000000, #128 ) ;
#154 = DIRECTION ( 'NONE',  ( -0.000000000000000000, -0.000000000000000000, -1.000000000000000000 ) ) ;
#155 = PERSON_AND_ORGANIZATION ( #46, #97 ) ;
#156 = FACE_OUTER_BOUND ( 'NONE', #91, .T. ) ;
#157 = CARTESIAN_POINT ( 'NONE',  ( 0.000000000000000000, 0.000000000000000000, 2.000000000000000000 ) ) ;
#158 = DIRECTION ( 'NONE',  ( -0.000000000000000000, -0.000000000000000000, -1.000000000000000000 ) ) ;
#159 = ORIENTED_EDGE ( 'NONE', *, *, #137, .T. ) ;
#160 =( LENGTH_UNIT ( ) NAMED_UNIT ( * ) SI_UNIT ( .MILLI., .METRE. ) );
#161 = DESIGN_CONTEXT ( 'detailed design', #72, 'design' ) ;
#162 = DIRECTION ( 'NONE',  ( 0.000000000000000000, 0.000000000000000000, 1.000000000000000000 ) ) ;
#163 = CC_DESIGN_PERSON_AND_ORGANIZATION_ASSIGNMENT ( #155, #41, ( #2 ) ) ;
#164 = LOCAL_TIME ( 16, 12, 11.00000000000000000, #56 ) ;
#165 = APPROVAL_ROLE ( '' ) ;
#166 = CIRCLE ( 'NONE', #133, 15.00000000000000000 ) ;
#167 = ADVANCED_FACE ( 'NONE', ( #84 ), #44, .F. ) ;
#168 = DATE_AND_TIME ( #111, #129 ) ;
#169 = CARTESIAN_POINT ( 'NONE',  ( -15.00000000000000000, 0.000000000000000000, 2.000000000000000000 ) ) ;
#170 = CC_DESIGN_APPROVAL ( #23, ( #2 ) ) ;
#171 = DIRECTION ( 'NONE',  ( -1.000000000000000000, 0.000000000000000000, 0.000000000000000000 ) ) ;
#172 = COORDINATED_UNIVERSAL_TIME_OFFSET ( 5, 0, .BEHIND. ) ;
#173 = AXIS2_PLACEMENT_3D ( 'NONE', #81, #158, #171 ) ;
#174 = CYLINDRICAL_SURFACE ( 'NONE', #148, 15.00000000000000000 ) ;
#175 = LINE ( 'NONE', #7, #40 ) ;
ENDSEC;
END-ISO-10303-21;
