ISO-10303-21;
HEADER;
FILE_DESCRIPTION (( 'STEP AP203' ),
    '1' );
FILE_NAME ('Web Model 18464_18470.step',
    '2021-09-13T18:45:54',
    ( '' ),
    ( '' ),
    'SwSTEP 2.0',
    'SolidWorks 2018',
    '' );
FILE_SCHEMA (( 'CONFIG_CONTROL_DESIGN' ));
ENDSEC;

DATA;
#1 = AXIS2_PLACEMENT_3D ( 'NONE', #140, #155, #86 ) ;
#2 = LOCAL_TIME ( 14, 45, 54.00000000000000000, #38 ) ;
#3 = SECURITY_CLASSIFICATION ( '', '', #77 ) ;
#4 = APPROVAL_PERSON_ORGANIZATION ( #112, #170, #116 ) ;
#5 = CARTESIAN_POINT ( 'NONE',  ( 0.000000000000000000, 0.000000000000000000, 0.000000000000000000 ) ) ;
#6 = DIRECTION ( 'NONE',  ( 0.000000000000000000, 0.000000000000000000, 1.000000000000000000 ) ) ;
#7 = CLOSED_SHELL ( 'NONE', ( #101, #11, #27, #137 ) ) ;
#8 = LOCAL_TIME ( 14, 45, 54.00000000000000000, #110 ) ;
#9 = APPROVAL_ROLE ( '' ) ;
#10 =( LENGTH_UNIT ( ) NAMED_UNIT ( * ) SI_UNIT ( .MILLI., .METRE. ) );
#11 = ADVANCED_FACE ( 'NONE', ( #95 ), #135, .T. ) ;
#12 = CC_DESIGN_PERSON_AND_ORGANIZATION_ASSIGNMENT ( #50, #106, ( #3 ) ) ;
#13 = VERTEX_POINT ( 'NONE', #19 ) ;
#14 = PERSON_AND_ORGANIZATION ( #42, #57 ) ;
#15 = APPROVAL ( #22, 'UNSPECIFIED' ) ;
#16 = SHAPE_DEFINITION_REPRESENTATION ( #48, #55 ) ;
#17 = APPROVAL ( #89, 'UNSPECIFIED' ) ;
#18 = PERSON_AND_ORGANIZATION ( #42, #57 ) ;
#19 = CARTESIAN_POINT ( 'NONE',  ( 10.00000000000000000, 1.224646799147353256E-15, 0.5000000000000000000 ) ) ;
#20 = DIRECTION ( 'NONE',  ( 1.000000000000000000, 0.000000000000000000, 0.000000000000000000 ) ) ;
#21 = PERSON_AND_ORGANIZATION ( #42, #57 ) ;
#22 = APPROVAL_STATUS ( 'not_yet_approved' ) ;
#23 = COORDINATED_UNIVERSAL_TIME_OFFSET ( 5, 0, .BEHIND. ) ;
#24 = CARTESIAN_POINT ( 'NONE',  ( 0.000000000000000000, 0.000000000000000000, 0.000000000000000000 ) ) ;
#25 = DATE_TIME_ROLE ( 'classification_date' ) ;
#26 = EDGE_LOOP ( 'NONE', ( #123, #159, #162, #99 ) ) ;
#27 = ADVANCED_FACE ( 'NONE', ( #160 ), #82, .T. ) ;
#28 = EDGE_CURVE ( 'NONE', #131, #33, #124, .T. ) ;
#29 = CC_DESIGN_APPROVAL ( #170, ( #165 ) ) ;
#30 = ORIENTED_EDGE ( 'NONE', *, *, #28, .F. ) ;
#31 = APPROVAL_PERSON_ORGANIZATION ( #163, #15, #9 ) ;
#32 = DIRECTION ( 'NONE',  ( -1.000000000000000000, 0.000000000000000000, 0.000000000000000000 ) ) ;
#33 = VERTEX_POINT ( 'NONE', #127 ) ;
#34 = APPROVAL_DATE_TIME ( #156, #15 ) ;
#35 = PERSON_AND_ORGANIZATION_ROLE ( 'creator' ) ;
#36 = CARTESIAN_POINT ( 'NONE',  ( -10.00000000000000000, 0.000000000000000000, 0.000000000000000000 ) ) ;
#37 = DIRECTION ( 'NONE',  ( 1.000000000000000000, 0.000000000000000000, 0.000000000000000000 ) ) ;
#38 = COORDINATED_UNIVERSAL_TIME_OFFSET ( 5, 0, .BEHIND. ) ;
#39 = APPROVAL_DATE_TIME ( #74, #170 ) ;
#40 = CC_DESIGN_SECURITY_CLASSIFICATION ( #3, ( #165 ) ) ;
#41 = CALENDAR_DATE ( 2021, 13, 9 ) ;
#42 = PERSON ( 'UNSPECIFIED', 'UNSPECIFIED', 'UNSPECIFIED', ('UNSPECIFIED'), ('UNSPECIFIED'), ('UNSPECIFIED') ) ;
#43 = EDGE_CURVE ( 'NONE', #33, #131, #166, .T. ) ;
#44 = VERTEX_POINT ( 'NONE', #96 ) ;
#45 = AXIS2_PLACEMENT_3D ( 'NONE', #136, #6, #150 ) ;
#46 = ORIENTED_EDGE ( 'NONE', *, *, #167, .F. ) ;
#47 = LOCAL_TIME ( 14, 45, 54.00000000000000000, #53 ) ;
#48 = PRODUCT_DEFINITION_SHAPE ( 'NONE', 'NONE',  #102 ) ;
#49 = PRODUCT_RELATED_PRODUCT_CATEGORY ( 'detail', '', ( #111 ) ) ;
#50 = PERSON_AND_ORGANIZATION ( #42, #57 ) ;
#51 = DATE_TIME_ROLE ( 'creation_date' ) ;
#52 = DIRECTION ( 'NONE',  ( 0.000000000000000000, 0.000000000000000000, 1.000000000000000000 ) ) ;
#53 = COORDINATED_UNIVERSAL_TIME_OFFSET ( 5, 0, .BEHIND. ) ;
#54 = EDGE_CURVE ( 'NONE', #13, #33, #148, .T. ) ;
#55 = ADVANCED_BREP_SHAPE_REPRESENTATION ( 'Web Model 18464_18470', ( #61, #68 ), #80 ) ;
#56 = AXIS2_PLACEMENT_3D ( 'NONE', #100, #173, #133 ) ;
#57 = ORGANIZATION ( 'UNSPECIFIED', 'UNSPECIFIED', '' ) ;
#58 = LOCAL_TIME ( 14, 45, 54.00000000000000000, #72 ) ;
#59 = EDGE_CURVE ( 'NONE', #13, #44, #91, .T. ) ;
#60 = CYLINDRICAL_SURFACE ( 'NONE', #158, 10.00000000000000000 ) ;
#61 = MANIFOLD_SOLID_BREP ( 'Boss-Extrude1', #7 ) ;
#62 = DIRECTION ( 'NONE',  ( -0.000000000000000000, -0.000000000000000000, -1.000000000000000000 ) ) ;
#63 = EDGE_CURVE ( 'NONE', #44, #131, #128, .T. ) ;
#64 = PERSON_AND_ORGANIZATION_ROLE ( 'design_owner' ) ;
#65 = DIRECTION ( 'NONE',  ( -0.000000000000000000, -0.000000000000000000, -1.000000000000000000 ) ) ;
#66 = CARTESIAN_POINT ( 'NONE',  ( 0.000000000000000000, 0.000000000000000000, 0.5000000000000000000 ) ) ;
#67 = EDGE_LOOP ( 'NONE', ( #79, #117 ) ) ;
#68 = AXIS2_PLACEMENT_3D ( 'NONE', #24, #52, #157 ) ;
#69 = DATE_AND_TIME ( #88, #175 ) ;
#70 = CC_DESIGN_DATE_AND_TIME_ASSIGNMENT ( #142, #51, ( #102 ) ) ;
#71 = DIRECTION ( 'NONE',  ( 1.000000000000000000, 0.000000000000000000, 0.000000000000000000 ) ) ;
#72 = COORDINATED_UNIVERSAL_TIME_OFFSET ( 5, 0, .BEHIND. ) ;
#73 = APPROVAL_ROLE ( '' ) ;
#74 = DATE_AND_TIME ( #147, #8 ) ;
#75 = CC_DESIGN_PERSON_AND_ORGANIZATION_ASSIGNMENT ( #83, #35, ( #165 ) ) ;
#76 = DIRECTION ( 'NONE',  ( 0.000000000000000000, 0.000000000000000000, 1.000000000000000000 ) ) ;
#77 = SECURITY_CLASSIFICATION_LEVEL ( 'unclassified' ) ;
#78 = FACE_OUTER_BOUND ( 'NONE', #168, .T. ) ;
#79 = ORIENTED_EDGE ( 'NONE', *, *, #167, .T. ) ;
#80 =( GEOMETRIC_REPRESENTATION_CONTEXT ( 3 ) GLOBAL_UNCERTAINTY_ASSIGNED_CONTEXT ( ( #108 ) ) GLOBAL_UNIT_ASSIGNED_CONTEXT ( ( #10, #105, #172 ) ) REPRESENTATION_CONTEXT ( 'NONE', 'WORKASPACE' ) );
#81 = VECTOR ( 'NONE', #65, 1000.000000000000000 ) ;
#82 = PLANE ( 'NONE',  #45 ) ;
#83 = PERSON_AND_ORGANIZATION ( #42, #57 ) ;
#84 = DIRECTION ( 'NONE',  ( -0.000000000000000000, -0.000000000000000000, -1.000000000000000000 ) ) ;
#85 = ORIENTED_EDGE ( 'NONE', *, *, #43, .F. ) ;
#86 = DIRECTION ( 'NONE',  ( 1.000000000000000000, 0.000000000000000000, 0.000000000000000000 ) ) ;
#87 = APPROVAL_STATUS ( 'not_yet_approved' ) ;
#88 = CALENDAR_DATE ( 2021, 13, 9 ) ;
#89 = APPROVAL_STATUS ( 'not_yet_approved' ) ;
#90 = DIRECTION ( 'NONE',  ( -1.000000000000000000, 0.000000000000000000, 0.000000000000000000 ) ) ;
#91 = CIRCLE ( 'NONE', #132, 10.00000000000000000 ) ;
#92 = AXIS2_PLACEMENT_3D ( 'NONE', #138, #84, #32 ) ;
#93 = PERSON_AND_ORGANIZATION ( #42, #57 ) ;
#94 = CC_DESIGN_PERSON_AND_ORGANIZATION_ASSIGNMENT ( #14, #118, ( #102 ) ) ;
#95 = FACE_OUTER_BOUND ( 'NONE', #120, .T. ) ;
#96 = CARTESIAN_POINT ( 'NONE',  ( -10.00000000000000000, 0.000000000000000000, 0.5000000000000000000 ) ) ;
#97 = DIRECTION ( 'NONE',  ( 0.000000000000000000, 0.000000000000000000, 1.000000000000000000 ) ) ;
#98 = CC_DESIGN_APPROVAL ( #17, ( #102 ) ) ;
#99 = ORIENTED_EDGE ( 'NONE', *, *, #63, .F. ) ;
#100 = CARTESIAN_POINT ( 'NONE',  ( 0.000000000000000000, 0.000000000000000000, 0.000000000000000000 ) ) ;
#101 = ADVANCED_FACE ( 'NONE', ( #134 ), #60, .T. ) ;
#102 = PRODUCT_DEFINITION ( 'UNKNOWN', '', #165, #125 ) ;
#103 = PERSON_AND_ORGANIZATION_ROLE ( 'design_supplier' ) ;
#104 = CC_DESIGN_PERSON_AND_ORGANIZATION_ASSIGNMENT ( #93, #103, ( #165 ) ) ;
#105 =( NAMED_UNIT ( * ) PLANE_ANGLE_UNIT ( ) SI_UNIT ( $, .RADIAN. ) );
#106 = PERSON_AND_ORGANIZATION_ROLE ( 'classification_officer' ) ;
#107 = APPROVAL_DATE_TIME ( #139, #17 ) ;
#108 = UNCERTAINTY_MEASURE_WITH_UNIT (LENGTH_MEASURE( 1.000000000000000082E-05 ), #10, 'distance_accuracy_value', 'NONE');
#109 = CC_DESIGN_PERSON_AND_ORGANIZATION_ASSIGNMENT ( #21, #64, ( #111 ) ) ;
#110 = COORDINATED_UNIVERSAL_TIME_OFFSET ( 5, 0, .BEHIND. ) ;
#111 = PRODUCT ( 'Web Model 18464_18470', 'Web Model 18464_18470', '', ( #141 ) ) ;
#112 = PERSON_AND_ORGANIZATION ( #42, #57 ) ;
#113 = CC_DESIGN_DATE_AND_TIME_ASSIGNMENT ( #69, #25, ( #3 ) ) ;
#114 = AXIS2_PLACEMENT_3D ( 'NONE', #164, #126, #20 ) ;
#115 = VECTOR ( 'NONE', #143, 1000.000000000000000 ) ;
#116 = APPROVAL_ROLE ( '' ) ;
#117 = ORIENTED_EDGE ( 'NONE', *, *, #59, .T. ) ;
#118 = PERSON_AND_ORGANIZATION_ROLE ( 'creator' ) ;
#119 = CALENDAR_DATE ( 2021, 13, 9 ) ;
#120 = EDGE_LOOP ( 'NONE', ( #174, #46, #151, #161 ) ) ;
#121 = CC_DESIGN_APPROVAL ( #15, ( #3 ) ) ;
#122 = AXIS2_PLACEMENT_3D ( 'NONE', #5, #97, #71 ) ;
#123 = ORIENTED_EDGE ( 'NONE', *, *, #59, .F. ) ;
#124 = CIRCLE ( 'NONE', #114, 10.00000000000000000 ) ;
#125 = DESIGN_CONTEXT ( 'detailed design', #145, 'design' ) ;
#126 = DIRECTION ( 'NONE',  ( 0.000000000000000000, 0.000000000000000000, 1.000000000000000000 ) ) ;
#127 = CARTESIAN_POINT ( 'NONE',  ( 10.00000000000000000, 1.224646799147353256E-15, 0.000000000000000000 ) ) ;
#128 = LINE ( 'NONE', #129, #81 ) ;
#129 = CARTESIAN_POINT ( 'NONE',  ( -10.00000000000000000, 0.000000000000000000, 0.5000000000000000000 ) ) ;
#130 = APPLICATION_CONTEXT ( 'configuration controlled 3d designs of mechanical parts and assemblies' ) ;
#131 = VERTEX_POINT ( 'NONE', #36 ) ;
#132 = AXIS2_PLACEMENT_3D ( 'NONE', #169, #76, #37 ) ;
#133 = DIRECTION ( 'NONE',  ( 1.000000000000000000, 0.000000000000000000, -0.000000000000000000 ) ) ;
#134 = FACE_OUTER_BOUND ( 'NONE', #26, .T. ) ;
#135 = CYLINDRICAL_SURFACE ( 'NONE', #92, 10.00000000000000000 ) ;
#136 = CARTESIAN_POINT ( 'NONE',  ( 0.000000000000000000, 0.000000000000000000, 0.5000000000000000000 ) ) ;
#137 = ADVANCED_FACE ( 'NONE', ( #78 ), #144, .F. ) ;
#138 = CARTESIAN_POINT ( 'NONE',  ( 0.000000000000000000, 0.000000000000000000, 0.5000000000000000000 ) ) ;
#139 = DATE_AND_TIME ( #154, #2 ) ;
#140 = CARTESIAN_POINT ( 'NONE',  ( 0.000000000000000000, 0.000000000000000000, 0.5000000000000000000 ) ) ;
#141 = MECHANICAL_CONTEXT ( 'NONE', #130, 'mechanical' ) ;
#142 = DATE_AND_TIME ( #41, #47 ) ;
#143 = DIRECTION ( 'NONE',  ( -0.000000000000000000, -0.000000000000000000, -1.000000000000000000 ) ) ;
#144 = PLANE ( 'NONE',  #56 ) ;
#145 = APPLICATION_CONTEXT ( 'configuration controlled 3d designs of mechanical parts and assemblies' ) ;
#146 = CIRCLE ( 'NONE', #1, 10.00000000000000000 ) ;
#147 = CALENDAR_DATE ( 2021, 13, 9 ) ;
#148 = LINE ( 'NONE', #152, #115 ) ;
#149 = APPROVAL_PERSON_ORGANIZATION ( #18, #17, #73 ) ;
#150 = DIRECTION ( 'NONE',  ( 1.000000000000000000, 0.000000000000000000, -0.000000000000000000 ) ) ;
#151 = ORIENTED_EDGE ( 'NONE', *, *, #63, .T. ) ;
#152 = CARTESIAN_POINT ( 'NONE',  ( 10.00000000000000000, 1.224646799147353256E-15, 0.5000000000000000000 ) ) ;
#153 = APPLICATION_PROTOCOL_DEFINITION ( 'international standard', 'config_control_design', 1994, #130 ) ;
#154 = CALENDAR_DATE ( 2021, 13, 9 ) ;
#155 = DIRECTION ( 'NONE',  ( 0.000000000000000000, 0.000000000000000000, 1.000000000000000000 ) ) ;
#156 = DATE_AND_TIME ( #119, #58 ) ;
#157 = DIRECTION ( 'NONE',  ( 1.000000000000000000, 0.000000000000000000, 0.000000000000000000 ) ) ;
#158 = AXIS2_PLACEMENT_3D ( 'NONE', #66, #62, #90 ) ;
#159 = ORIENTED_EDGE ( 'NONE', *, *, #54, .T. ) ;
#160 = FACE_OUTER_BOUND ( 'NONE', #67, .T. ) ;
#161 = ORIENTED_EDGE ( 'NONE', *, *, #28, .T. ) ;
#162 = ORIENTED_EDGE ( 'NONE', *, *, #43, .T. ) ;
#163 = PERSON_AND_ORGANIZATION ( #42, #57 ) ;
#164 = CARTESIAN_POINT ( 'NONE',  ( 0.000000000000000000, 0.000000000000000000, 0.000000000000000000 ) ) ;
#165 = PRODUCT_DEFINITION_FORMATION_WITH_SPECIFIED_SOURCE ( 'ANY', '', #111, .NOT_KNOWN. ) ;
#166 = CIRCLE ( 'NONE', #122, 10.00000000000000000 ) ;
#167 = EDGE_CURVE ( 'NONE', #44, #13, #146, .T. ) ;
#168 = EDGE_LOOP ( 'NONE', ( #30, #85 ) ) ;
#169 = CARTESIAN_POINT ( 'NONE',  ( 0.000000000000000000, 0.000000000000000000, 0.5000000000000000000 ) ) ;
#170 = APPROVAL ( #87, 'UNSPECIFIED' ) ;
#171 = APPLICATION_PROTOCOL_DEFINITION ( 'international standard', 'config_control_design', 1994, #145 ) ;
#172 =( NAMED_UNIT ( * ) SI_UNIT ( $, .STERADIAN. ) SOLID_ANGLE_UNIT ( ) );
#173 = DIRECTION ( 'NONE',  ( 0.000000000000000000, 0.000000000000000000, 1.000000000000000000 ) ) ;
#174 = ORIENTED_EDGE ( 'NONE', *, *, #54, .F. ) ;
#175 = LOCAL_TIME ( 14, 45, 54.00000000000000000, #23 ) ;
ENDSEC;
END-ISO-10303-21;
