ISO-10303-21;
HEADER;
FILE_DESCRIPTION (( 'STEP AP203' ),
    '1' );
FILE_NAME ('Web Model 48200_48202.step',
    '2019-01-07T15:25:34',
    ( '' ),
    ( '' ),
    'SwSTEP 2.0',
    'SolidWorks 2016',
    '' );
FILE_SCHEMA (( 'CONFIG_CONTROL_DESIGN' ));
ENDSEC;

DATA;
#1 = PERSON_AND_ORGANIZATION ( #65, #161 ) ;
#2 = DIRECTION ( 'NONE',  ( -1.000000000000000000, -0.0000000000000000000, -0.0000000000000000000 ) ) ;
#3 = PERSON_AND_ORGANIZATION_ROLE ( 'design_owner' ) ;
#4 = PRODUCT_RELATED_PRODUCT_CATEGORY ( 'detail', '', ( #178 ) ) ;
#5 = CALENDAR_DATE ( 2019, 7, 1 ) ;
#6 = ORIENTED_EDGE ( 'NONE', *, *, #36, .T. ) ;
#7 = APPROVAL_ROLE ( '' ) ;
#8 = APPROVAL_DATE_TIME ( #102, #175 ) ;
#9 = PLANE ( 'NONE',  #43 ) ;
#10 = LINE ( 'NONE', #117, #201 ) ;
#11 = VERTEX_POINT ( 'NONE', #234 ) ;
#12 = CC_DESIGN_APPROVAL ( #51, ( #186 ) ) ;
#13 = COORDINATED_UNIVERSAL_TIME_OFFSET ( 5, 0, .BEHIND. ) ;
#14 = LINE ( 'NONE', #97, #159 ) ;
#15 = EDGE_LOOP ( 'NONE', ( #190, #214, #60, #209 ) ) ;
#16 = EDGE_CURVE ( 'NONE', #195, #122, #164, .T. ) ;
#17 = CARTESIAN_POINT ( 'NONE',  ( 6.250000000000006200, -6.249999999999984900, -1.000000000000000000 ) ) ;
#18 = ADVANCED_FACE ( 'NONE', ( #128 ), #208, .F. ) ;
#19 = PERSON_AND_ORGANIZATION_ROLE ( 'classification_officer' ) ;
#20 = EDGE_LOOP ( 'NONE', ( #46, #196, #206, #99 ) ) ;
#21 = ORIENTED_EDGE ( 'NONE', *, *, #78, .F. ) ;
#22 = APPLICATION_CONTEXT ( 'configuration controlled 3d designs of mechanical parts and assemblies' ) ;
#23 = MECHANICAL_CONTEXT ( 'NONE', #145, 'mechanical' ) ;
#24 = APPROVAL_STATUS ( 'not_yet_approved' ) ;
#25 = VERTEX_POINT ( 'NONE', #29 ) ;
#26 = VECTOR ( 'NONE', #125, 1000.000000000000000 ) ;
#27 = VECTOR ( 'NONE', #127, 1000.000000000000000 ) ;
#28 = CARTESIAN_POINT ( 'NONE',  ( -6.249999999999994700, -6.249999999999984900, 1.000000000000000000 ) ) ;
#29 = CARTESIAN_POINT ( 'NONE',  ( -6.249999999999994700, -6.249999999999984900, 1.000000000000000000 ) ) ;
#30 = ORIENTED_EDGE ( 'NONE', *, *, #82, .T. ) ;
#31 = CC_DESIGN_PERSON_AND_ORGANIZATION_ASSIGNMENT ( #107, #19, ( #186 ) ) ;
#32 = DIRECTION ( 'NONE',  ( 0.0000000000000000000, 1.000000000000000000, 0.0000000000000000000 ) ) ;
#33 = CC_DESIGN_APPROVAL ( #175, ( #223 ) ) ;
#34 = APPROVAL_ROLE ( '' ) ;
#35 = DIRECTION ( 'NONE',  ( -1.000000000000000000, 0.0000000000000000000, -0.0000000000000000000 ) ) ;
#36 = EDGE_CURVE ( 'NONE', #67, #63, #76, .T. ) ;
#37 = DIRECTION ( 'NONE',  ( -1.000000000000000000, 0.0000000000000000000, -0.0000000000000000000 ) ) ;
#38 = CALENDAR_DATE ( 2019, 7, 1 ) ;
#39 = PERSON_AND_ORGANIZATION_ROLE ( 'design_supplier' ) ;
#40 = FACE_OUTER_BOUND ( 'NONE', #15, .T. ) ;
#41 = EDGE_CURVE ( 'NONE', #11, #195, #176, .T. ) ;
#42 = ORIENTED_EDGE ( 'NONE', *, *, #78, .T. ) ;
#43 = AXIS2_PLACEMENT_3D ( 'NONE', #93, #226, #35 ) ;
#44 = EDGE_LOOP ( 'NONE', ( #104, #119, #158, #42 ) ) ;
#45 = CC_DESIGN_APPROVAL ( #167, ( #216 ) ) ;
#46 = ORIENTED_EDGE ( 'NONE', *, *, #41, .T. ) ;
#47 = CARTESIAN_POINT ( 'NONE',  ( 6.250000000000006200, 6.250000000000012400, -1.000000000000000000 ) ) ;
#48 = VECTOR ( 'NONE', #187, 1000.000000000000000 ) ;
#49 = ORIENTED_EDGE ( 'NONE', *, *, #16, .F. ) ;
#50 = DIRECTION ( 'NONE',  ( 0.0000000000000000000, -0.0000000000000000000, 1.000000000000000000 ) ) ;
#51 = APPROVAL ( #188, 'UNSPECIFIED' ) ;
#52 = DIRECTION ( 'NONE',  ( 1.000000000000000000, 0.0000000000000000000, 0.0000000000000000000 ) ) ;
#53 = COORDINATED_UNIVERSAL_TIME_OFFSET ( 5, 0, .BEHIND. ) ;
#54 = LOCAL_TIME ( 10, 25, 34.00000000000000000, #157 ) ;
#55 = CARTESIAN_POINT ( 'NONE',  ( -6.249999999999994700, -6.249999999999984900, 1.000000000000000000 ) ) ;
#56 = APPLICATION_PROTOCOL_DEFINITION ( 'international standard', 'config_control_design', 1994, #22 ) ;
#57 =( GEOMETRIC_REPRESENTATION_CONTEXT ( 3 ) GLOBAL_UNCERTAINTY_ASSIGNED_CONTEXT ( ( #139 ) ) GLOBAL_UNIT_ASSIGNED_CONTEXT ( ( #228, #134, #193 ) ) REPRESENTATION_CONTEXT ( 'NONE', 'WORKASPACE' ) );
#58 = AXIS2_PLACEMENT_3D ( 'NONE', #55, #96, #50 ) ;
#59 = APPROVAL_DATE_TIME ( #194, #51 ) ;
#60 = ORIENTED_EDGE ( 'NONE', *, *, #36, .F. ) ;
#61 = LINE ( 'NONE', #75, #48 ) ;
#62 = APPROVAL_PERSON_ORGANIZATION ( #151, #167, #7 ) ;
#63 = VERTEX_POINT ( 'NONE', #87 ) ;
#64 = LOCAL_TIME ( 10, 25, 34.00000000000000000, #13 ) ;
#65 = PERSON ( 'UNSPECIFIED', 'UNSPECIFIED', 'UNSPECIFIED', ('UNSPECIFIED'), ('UNSPECIFIED'), ('UNSPECIFIED') ) ;
#66 = LINE ( 'NONE', #84, #81 ) ;
#67 = VERTEX_POINT ( 'NONE', #108 ) ;
#68 = DIRECTION ( 'NONE',  ( -0.0000000000000000000, -0.0000000000000000000, -1.000000000000000000 ) ) ;
#69 = CC_DESIGN_DATE_AND_TIME_ASSIGNMENT ( #172, #146, ( #186 ) ) ;
#70 = CARTESIAN_POINT ( 'NONE',  ( -6.249999999999994700, -6.249999999999984900, -1.000000000000000000 ) ) ;
#71 = CARTESIAN_POINT ( 'NONE',  ( 6.250000000000006200, -6.249999999999984900, -1.000000000000000000 ) ) ;
#72 = APPLICATION_PROTOCOL_DEFINITION ( 'international standard', 'config_control_design', 1994, #145 ) ;
#73 = PLANE ( 'NONE',  #58 ) ;
#74 = VECTOR ( 'NONE', #136, 1000.000000000000000 ) ;
#75 = CARTESIAN_POINT ( 'NONE',  ( -6.249999999999994700, 6.250000000000012400, -1.000000000000000000 ) ) ;
#76 = LINE ( 'NONE', #70, #215 ) ;
#77 = LINE ( 'NONE', #236, #138 ) ;
#78 = EDGE_CURVE ( 'NONE', #25, #63, #173, .T. ) ;
#79 = DESIGN_CONTEXT ( 'detailed design', #22, 'design' ) ;
#80 = MANIFOLD_SOLID_BREP ( 'Boss-Extrude1', #110 ) ;
#81 = VECTOR ( 'NONE', #68, 1000.000000000000000 ) ;
#82 = EDGE_CURVE ( 'NONE', #11, #170, #66, .T. ) ;
#83 = ORIENTED_EDGE ( 'NONE', *, *, #131, .F. ) ;
#84 = CARTESIAN_POINT ( 'NONE',  ( 6.250000000000006200, -6.249999999999984900, 1.000000000000000000 ) ) ;
#85 = ADVANCED_FACE ( 'NONE', ( #180 ), #111, .F. ) ;
#86 = FACE_OUTER_BOUND ( 'NONE', #20, .T. ) ;
#87 = CARTESIAN_POINT ( 'NONE',  ( -6.249999999999994700, -6.249999999999984900, -1.000000000000000000 ) ) ;
#88 = DIRECTION ( 'NONE',  ( -0.0000000000000000000, -1.000000000000000000, -0.0000000000000000000 ) ) ;
#89 = APPROVAL_DATE_TIME ( #197, #167 ) ;
#90 = APPROVAL_PERSON_ORGANIZATION ( #1, #175, #34 ) ;
#91 = EDGE_CURVE ( 'NONE', #122, #25, #77, .T. ) ;
#92 = CARTESIAN_POINT ( 'NONE',  ( 0.0000000000000000000, 0.0000000000000000000, -1.000000000000000000 ) ) ;
#93 = CARTESIAN_POINT ( 'NONE',  ( 0.0000000000000000000, 0.0000000000000000000, 1.000000000000000000 ) ) ;
#94 = VERTEX_POINT ( 'NONE', #47 ) ;
#95 = PERSON_AND_ORGANIZATION ( #65, #161 ) ;
#96 = DIRECTION ( 'NONE',  ( 0.0000000000000000000, 1.000000000000000000, 0.0000000000000000000 ) ) ;
#97 = CARTESIAN_POINT ( 'NONE',  ( -6.249999999999994700, -6.249999999999984900, 1.000000000000000000 ) ) ;
#98 = FACE_OUTER_BOUND ( 'NONE', #44, .T. ) ;
#99 = ORIENTED_EDGE ( 'NONE', *, *, #144, .T. ) ;
#100 = APPROVAL_ROLE ( '' ) ;
#101 = ORIENTED_EDGE ( 'NONE', *, *, #203, .T. ) ;
#102 = DATE_AND_TIME ( #233, #64 ) ;
#103 = CC_DESIGN_PERSON_AND_ORGANIZATION_ASSIGNMENT ( #198, #3, ( #178 ) ) ;
#104 = ORIENTED_EDGE ( 'NONE', *, *, #213, .T. ) ;
#105 = SHAPE_DEFINITION_REPRESENTATION ( #218, #177 ) ;
#106 = EDGE_CURVE ( 'NONE', #170, #94, #154, .T. ) ;
#107 = PERSON_AND_ORGANIZATION ( #65, #161 ) ;
#108 = CARTESIAN_POINT ( 'NONE',  ( -6.249999999999994700, 6.250000000000012400, -1.000000000000000000 ) ) ;
#109 = FACE_OUTER_BOUND ( 'NONE', #113, .T. ) ;
#110 = CLOSED_SHELL ( 'NONE', ( #85, #18, #124, #163, #202, #222 ) ) ;
#111 = PLANE ( 'NONE',  #229 ) ;
#112 = CARTESIAN_POINT ( 'NONE',  ( 6.250000000000006200, 6.250000000000012400, 1.000000000000000000 ) ) ;
#113 = EDGE_LOOP ( 'NONE', ( #6, #21, #150, #155 ) ) ;
#114 = DIRECTION ( 'NONE',  ( 1.000000000000000000, 0.0000000000000000000, 0.0000000000000000000 ) ) ;
#115 = DATE_TIME_ROLE ( 'creation_date' ) ;
#116 = CC_DESIGN_PERSON_AND_ORGANIZATION_ASSIGNMENT ( #123, #39, ( #216 ) ) ;
#117 = CARTESIAN_POINT ( 'NONE',  ( -6.249999999999994700, -6.249999999999984900, -1.000000000000000000 ) ) ;
#118 = VECTOR ( 'NONE', #32, 1000.000000000000000 ) ;
#119 = ORIENTED_EDGE ( 'NONE', *, *, #82, .F. ) ;
#120 = LOCAL_TIME ( 10, 25, 34.00000000000000000, #53 ) ;
#121 = VECTOR ( 'NONE', #168, 1000.000000000000000 ) ;
#122 = VERTEX_POINT ( 'NONE', #126 ) ;
#123 = PERSON_AND_ORGANIZATION ( #65, #161 ) ;
#124 = ADVANCED_FACE ( 'NONE', ( #109 ), #191, .F. ) ;
#125 = DIRECTION ( 'NONE',  ( -0.0000000000000000000, -0.0000000000000000000, -1.000000000000000000 ) ) ;
#126 = CARTESIAN_POINT ( 'NONE',  ( -6.249999999999994700, 6.250000000000012400, 1.000000000000000000 ) ) ;
#127 = DIRECTION ( 'NONE',  ( 0.0000000000000000000, 1.000000000000000000, 0.0000000000000000000 ) ) ;
#128 = FACE_OUTER_BOUND ( 'NONE', #231, .T. ) ;
#129 = DATE_AND_TIME ( #38, #184 ) ;
#130 = CARTESIAN_POINT ( 'NONE',  ( 0.0000000000000000000, 0.0000000000000000000, 0.0000000000000000000 ) ) ;
#131 = EDGE_CURVE ( 'NONE', #122, #67, #133, .T. ) ;
#132 = CARTESIAN_POINT ( 'NONE',  ( -6.249999999999994700, -6.249999999999984900, 1.000000000000000000 ) ) ;
#133 = LINE ( 'NONE', #142, #74 ) ;
#134 =( NAMED_UNIT ( * ) PLANE_ANGLE_UNIT ( ) SI_UNIT ( $, .RADIAN. ) );
#135 = COORDINATED_UNIVERSAL_TIME_OFFSET ( 5, 0, .BEHIND. ) ;
#136 = DIRECTION ( 'NONE',  ( -0.0000000000000000000, -0.0000000000000000000, -1.000000000000000000 ) ) ;
#137 = COORDINATED_UNIVERSAL_TIME_OFFSET ( 5, 0, .BEHIND. ) ;
#138 = VECTOR ( 'NONE', #221, 1000.000000000000000 ) ;
#139 = UNCERTAINTY_MEASURE_WITH_UNIT (LENGTH_MEASURE( 1.000000000000000100E-005 ), #228, 'distance_accuracy_value', 'NONE');
#140 = AXIS2_PLACEMENT_3D ( 'NONE', #132, #189, #148 ) ;
#141 = ORIENTED_EDGE ( 'NONE', *, *, #203, .F. ) ;
#142 = CARTESIAN_POINT ( 'NONE',  ( -6.249999999999994700, 6.250000000000012400, 1.000000000000000000 ) ) ;
#143 = CARTESIAN_POINT ( 'NONE',  ( 6.250000000000006200, -6.249999999999984900, 1.000000000000000000 ) ) ;
#144 = EDGE_CURVE ( 'NONE', #25, #11, #14, .T. ) ;
#145 = APPLICATION_CONTEXT ( 'configuration controlled 3d designs of mechanical parts and assemblies' ) ;
#146 = DATE_TIME_ROLE ( 'classification_date' ) ;
#147 = APPROVAL_STATUS ( 'not_yet_approved' ) ;
#148 = DIRECTION ( 'NONE',  ( 0.0000000000000000000, 0.0000000000000000000, -1.000000000000000000 ) ) ;
#149 = DIRECTION ( 'NONE',  ( 0.0000000000000000000, 0.0000000000000000000, 1.000000000000000000 ) ) ;
#150 = ORIENTED_EDGE ( 'NONE', *, *, #91, .F. ) ;
#151 = PERSON_AND_ORGANIZATION ( #65, #161 ) ;
#152 = CC_DESIGN_PERSON_AND_ORGANIZATION_ASSIGNMENT ( #95, #166, ( #223 ) ) ;
#153 = ORIENTED_EDGE ( 'NONE', *, *, #41, .F. ) ;
#154 = LINE ( 'NONE', #17, #118 ) ;
#155 = ORIENTED_EDGE ( 'NONE', *, *, #131, .T. ) ;
#156 = EDGE_CURVE ( 'NONE', #94, #67, #61, .T. ) ;
#157 = COORDINATED_UNIVERSAL_TIME_OFFSET ( 5, 0, .BEHIND. ) ;
#158 = ORIENTED_EDGE ( 'NONE', *, *, #144, .F. ) ;
#159 = VECTOR ( 'NONE', #114, 1000.000000000000000 ) ;
#160 = DIRECTION ( 'NONE',  ( -1.000000000000000000, 0.0000000000000000000, 0.0000000000000000000 ) ) ;
#161 = ORGANIZATION ( 'UNSPECIFIED', 'UNSPECIFIED', '' ) ;
#162 = CARTESIAN_POINT ( 'NONE',  ( 6.250000000000006200, -6.249999999999984900, 1.000000000000000000 ) ) ;
#163 = ADVANCED_FACE ( 'NONE', ( #98 ), #73, .F. ) ;
#164 = LINE ( 'NONE', #217, #183 ) ;
#165 = PERSON_AND_ORGANIZATION_ROLE ( 'creator' ) ;
#166 = PERSON_AND_ORGANIZATION_ROLE ( 'creator' ) ;
#167 = APPROVAL ( #147, 'UNSPECIFIED' ) ;
#168 = DIRECTION ( 'NONE',  ( -0.0000000000000000000, -0.0000000000000000000, -1.000000000000000000 ) ) ;
#169 = DIRECTION ( 'NONE',  ( 0.0000000000000000000, 0.0000000000000000000, -1.000000000000000000 ) ) ;
#170 = VERTEX_POINT ( 'NONE', #71 ) ;
#171 = LOCAL_TIME ( 10, 25, 34.00000000000000000, #135 ) ;
#172 = DATE_AND_TIME ( #5, #54 ) ;
#173 = LINE ( 'NONE', #28, #26 ) ;
#174 = AXIS2_PLACEMENT_3D ( 'NONE', #92, #169, #37 ) ;
#175 = APPROVAL ( #24, 'UNSPECIFIED' ) ;
#176 = LINE ( 'NONE', #143, #27 ) ;
#177 = ADVANCED_BREP_SHAPE_REPRESENTATION ( 'Web Model 48200_48202', ( #80, #210 ), #57 ) ;
#178 = PRODUCT ( 'Web Model 48200_48202', 'Web Model 48200_48202', '', ( #23 ) ) ;
#179 = CC_DESIGN_SECURITY_CLASSIFICATION ( #186, ( #216 ) ) ;
#180 = FACE_OUTER_BOUND ( 'NONE', #237, .T. ) ;
#181 = CALENDAR_DATE ( 2019, 7, 1 ) ;
#182 = DIRECTION ( 'NONE',  ( 0.0000000000000000000, -0.0000000000000000000, -1.000000000000000000 ) ) ;
#183 = VECTOR ( 'NONE', #2, 1000.000000000000000 ) ;
#184 = LOCAL_TIME ( 10, 25, 34.00000000000000000, #137 ) ;
#185 = PERSON_AND_ORGANIZATION ( #65, #161 ) ;
#186 = SECURITY_CLASSIFICATION ( '', '', #212 ) ;
#187 = DIRECTION ( 'NONE',  ( -1.000000000000000000, -0.0000000000000000000, -0.0000000000000000000 ) ) ;
#188 = APPROVAL_STATUS ( 'not_yet_approved' ) ;
#189 = DIRECTION ( 'NONE',  ( 1.000000000000000000, 0.0000000000000000000, 0.0000000000000000000 ) ) ;
#190 = ORIENTED_EDGE ( 'NONE', *, *, #106, .F. ) ;
#191 = PLANE ( 'NONE',  #140 ) ;
#192 = CC_DESIGN_DATE_AND_TIME_ASSIGNMENT ( #129, #115, ( #223 ) ) ;
#193 =( NAMED_UNIT ( * ) SI_UNIT ( $, .STERADIAN. ) SOLID_ANGLE_UNIT ( ) );
#194 = DATE_AND_TIME ( #200, #120 ) ;
#195 = VERTEX_POINT ( 'NONE', #112 ) ;
#196 = ORIENTED_EDGE ( 'NONE', *, *, #16, .T. ) ;
#197 = DATE_AND_TIME ( #181, #171 ) ;
#198 = PERSON_AND_ORGANIZATION ( #65, #161 ) ;
#199 = ORIENTED_EDGE ( 'NONE', *, *, #156, .T. ) ;
#200 = CALENDAR_DATE ( 2019, 7, 1 ) ;
#201 = VECTOR ( 'NONE', #52, 1000.000000000000000 ) ;
#202 = ADVANCED_FACE ( 'NONE', ( #86 ), #9, .F. ) ;
#203 = EDGE_CURVE ( 'NONE', #195, #94, #204, .T. ) ;
#204 = LINE ( 'NONE', #211, #121 ) ;
#205 = DIRECTION ( 'NONE',  ( 0.0000000000000000000, 0.0000000000000000000, 1.000000000000000000 ) ) ;
#206 = ORIENTED_EDGE ( 'NONE', *, *, #91, .T. ) ;
#207 = DIRECTION ( 'NONE',  ( 0.0000000000000000000, -1.000000000000000000, 0.0000000000000000000 ) ) ;
#208 = PLANE ( 'NONE',  #232 ) ;
#209 = ORIENTED_EDGE ( 'NONE', *, *, #156, .F. ) ;
#210 = AXIS2_PLACEMENT_3D ( 'NONE', #130, #149, #225 ) ;
#211 = CARTESIAN_POINT ( 'NONE',  ( 6.250000000000006200, 6.250000000000012400, 1.000000000000000000 ) ) ;
#212 = SECURITY_CLASSIFICATION_LEVEL ( 'unclassified' ) ;
#213 = EDGE_CURVE ( 'NONE', #63, #170, #10, .T. ) ;
#214 = ORIENTED_EDGE ( 'NONE', *, *, #213, .F. ) ;
#215 = VECTOR ( 'NONE', #88, 1000.000000000000000 ) ;
#216 = PRODUCT_DEFINITION_FORMATION_WITH_SPECIFIED_SOURCE ( 'ANY', '', #178, .NOT_KNOWN. ) ;
#217 = CARTESIAN_POINT ( 'NONE',  ( -6.249999999999994700, 6.250000000000012400, 1.000000000000000000 ) ) ;
#218 = PRODUCT_DEFINITION_SHAPE ( 'NONE', 'NONE',  #223 ) ;
#219 = APPROVAL_PERSON_ORGANIZATION ( #227, #51, #100 ) ;
#220 = ORIENTED_EDGE ( 'NONE', *, *, #106, .T. ) ;
#221 = DIRECTION ( 'NONE',  ( -0.0000000000000000000, -1.000000000000000000, -0.0000000000000000000 ) ) ;
#222 = ADVANCED_FACE ( 'NONE', ( #40 ), #224, .T. ) ;
#223 = PRODUCT_DEFINITION ( 'UNKNOWN', '', #216, #79 ) ;
#224 = PLANE ( 'NONE',  #174 ) ;
#225 = DIRECTION ( 'NONE',  ( 1.000000000000000000, 0.0000000000000000000, 0.0000000000000000000 ) ) ;
#226 = DIRECTION ( 'NONE',  ( 0.0000000000000000000, 0.0000000000000000000, -1.000000000000000000 ) ) ;
#227 = PERSON_AND_ORGANIZATION ( #65, #161 ) ;
#228 =( LENGTH_UNIT ( ) NAMED_UNIT ( * ) SI_UNIT ( .MILLI., .METRE. ) );
#229 = AXIS2_PLACEMENT_3D ( 'NONE', #162, #160, #205 ) ;
#230 = CC_DESIGN_PERSON_AND_ORGANIZATION_ASSIGNMENT ( #185, #165, ( #216 ) ) ;
#231 = EDGE_LOOP ( 'NONE', ( #199, #83, #49, #101 ) ) ;
#232 = AXIS2_PLACEMENT_3D ( 'NONE', #235, #207, #182 ) ;
#233 = CALENDAR_DATE ( 2019, 7, 1 ) ;
#234 = CARTESIAN_POINT ( 'NONE',  ( 6.250000000000006200, -6.249999999999984900, 1.000000000000000000 ) ) ;
#235 = CARTESIAN_POINT ( 'NONE',  ( -6.249999999999994700, 6.250000000000012400, 1.000000000000000000 ) ) ;
#236 = CARTESIAN_POINT ( 'NONE',  ( -6.249999999999994700, -6.249999999999984900, 1.000000000000000000 ) ) ;
#237 = EDGE_LOOP ( 'NONE', ( #220, #141, #153, #30 ) ) ;
ENDSEC;
END-ISO-10303-21;
