ISO-10303-21;
HEADER;
FILE_DESCRIPTION (( 'STEP AP203' ),
    '1' );
FILE_NAME ('Web Model 68513.STEP',
    '2017-02-01T13:25:14',
    ( '' ),
    ( '' ),
    'SwSTEP 2.0',
    'SolidWorks 2016',
    '' );
FILE_SCHEMA (( 'CONFIG_CONTROL_DESIGN' ));
ENDSEC;

DATA;
#1 = DIRECTION ( 'NONE',  ( 0.0000000000000000000, 0.0000000000000000000, 1.000000000000000000 ) ) ;
#2 = ORIENTED_EDGE ( 'NONE', *, *, #124, .F. ) ;
#3 = FACE_OUTER_BOUND ( 'NONE', #67, .T. ) ;
#4 = LOCAL_TIME ( 8, 25, 14.00000000000000000, #8 ) ;
#5 = CARTESIAN_POINT ( 'NONE',  ( 0.0000000000000000000, 0.0000000000000000000, 0.0000000000000000000 ) ) ;
#6 = VERTEX_POINT ( 'NONE', #7 ) ;
#7 = CARTESIAN_POINT ( 'NONE',  ( 12.50000000000000000, 1.530808498934191500E-015, 0.0000000000000000000 ) ) ;
#8 = COORDINATED_UNIVERSAL_TIME_OFFSET ( 5, 0, .BEHIND. ) ;
#9 = PERSON_AND_ORGANIZATION ( #58, #122 ) ;
#10 = SECURITY_CLASSIFICATION ( '', '', #143 ) ;
#11 = APPROVAL_PERSON_ORGANIZATION ( #72, #88, #19 ) ;
#12 = CARTESIAN_POINT ( 'NONE',  ( 0.0000000000000000000, 0.0000000000000000000, 0.0000000000000000000 ) ) ;
#13 = APPROVAL_ROLE ( '' ) ;
#14 = PERSON_AND_ORGANIZATION ( #58, #122 ) ;
#15 = FACE_OUTER_BOUND ( 'NONE', #85, .T. ) ;
#16 = DIRECTION ( 'NONE',  ( 1.000000000000000000, 0.0000000000000000000, -0.0000000000000000000 ) ) ;
#17 = ORIENTED_EDGE ( 'NONE', *, *, #29, .F. ) ;
#18 = PERSON_AND_ORGANIZATION ( #58, #122 ) ;
#19 = APPROVAL_ROLE ( '' ) ;
#20 = PERSON_AND_ORGANIZATION ( #58, #122 ) ;
#21 = ORIENTED_EDGE ( 'NONE', *, *, #56, .T. ) ;
#22 = PERSON_AND_ORGANIZATION_ROLE ( 'design_supplier' ) ;
#23 = APPLICATION_PROTOCOL_DEFINITION ( 'international standard', 'config_control_design', 1994, #132 ) ;
#24 = ADVANCED_FACE ( 'NONE', ( #3 ), #74, .F. ) ;
#25 = EDGE_CURVE ( 'NONE', #6, #173, #140, .T. ) ;
#26 = VECTOR ( 'NONE', #130, 1000.000000000000000 ) ;
#27 = PERSON_AND_ORGANIZATION ( #58, #122 ) ;
#28 = FACE_OUTER_BOUND ( 'NONE', #60, .T. ) ;
#29 = EDGE_CURVE ( 'NONE', #173, #6, #112, .T. ) ;
#30 = AXIS2_PLACEMENT_3D ( 'NONE', #102, #118, #138 ) ;
#31 = CC_DESIGN_PERSON_AND_ORGANIZATION_ASSIGNMENT ( #9, #142, ( #166 ) ) ;
#32 = DIRECTION ( 'NONE',  ( 0.0000000000000000000, 0.0000000000000000000, 1.000000000000000000 ) ) ;
#33 = CLOSED_SHELL ( 'NONE', ( #83, #120, #144, #24 ) ) ;
#34 = CALENDAR_DATE ( 2017, 1, 2 ) ;
#35 = APPLICATION_CONTEXT ( 'configuration controlled 3d designs of mechanical parts and assemblies' ) ;
#36 = UNCERTAINTY_MEASURE_WITH_UNIT (LENGTH_MEASURE( 1.000000000000000100E-005 ), #45, 'distance_accuracy_value', 'NONE');
#37 = CC_DESIGN_APPROVAL ( #88, ( #111 ) ) ;
#38 = APPROVAL_PERSON_ORGANIZATION ( #27, #96, #13 ) ;
#39 = CC_DESIGN_PERSON_AND_ORGANIZATION_ASSIGNMENT ( #20, #131, ( #111 ) ) ;
#40 = ORIENTED_EDGE ( 'NONE', *, *, #124, .T. ) ;
#41 = CC_DESIGN_PERSON_AND_ORGANIZATION_ASSIGNMENT ( #110, #82, ( #10 ) ) ;
#42 = ORIENTED_EDGE ( 'NONE', *, *, #29, .T. ) ;
#43 = DIRECTION ( 'NONE',  ( -1.000000000000000000, 0.0000000000000000000, 0.0000000000000000000 ) ) ;
#44 = DIRECTION ( 'NONE',  ( 0.0000000000000000000, 0.0000000000000000000, 1.000000000000000000 ) ) ;
#45 =( LENGTH_UNIT ( ) NAMED_UNIT ( * ) SI_UNIT ( .MILLI., .METRE. ) );
#46 = AXIS2_PLACEMENT_3D ( 'NONE', #12, #32, #156 ) ;
#47 = CALENDAR_DATE ( 2017, 1, 2 ) ;
#48 = AXIS2_PLACEMENT_3D ( 'NONE', #98, #126, #43 ) ;
#49 = CALENDAR_DATE ( 2017, 1, 2 ) ;
#50 = CC_DESIGN_APPROVAL ( #149, ( #170 ) ) ;
#51 = CARTESIAN_POINT ( 'NONE',  ( 12.50000000000000000, 1.530808498934191500E-015, 2.000000000000000000 ) ) ;
#52 = APPROVAL_ROLE ( '' ) ;
#53 = APPROVAL_DATE_TIME ( #154, #96 ) ;
#54 = CC_DESIGN_DATE_AND_TIME_ASSIGNMENT ( #95, #92, ( #10 ) ) ;
#55 = ORIENTED_EDGE ( 'NONE', *, *, #66, .T. ) ;
#56 = EDGE_CURVE ( 'NONE', #164, #173, #107, .T. ) ;
#57 = ORIENTED_EDGE ( 'NONE', *, *, #139, .F. ) ;
#58 = PERSON ( 'UNSPECIFIED', 'UNSPECIFIED', 'UNSPECIFIED', ('UNSPECIFIED'), ('UNSPECIFIED'), ('UNSPECIFIED') ) ;
#59 = DATE_AND_TIME ( #115, #121 ) ;
#60 = EDGE_LOOP ( 'NONE', ( #57, #40, #70, #108 ) ) ;
#61 = DIRECTION ( 'NONE',  ( 0.0000000000000000000, 0.0000000000000000000, 1.000000000000000000 ) ) ;
#62 =( GEOMETRIC_REPRESENTATION_CONTEXT ( 3 ) GLOBAL_UNCERTAINTY_ASSIGNED_CONTEXT ( ( #36 ) ) GLOBAL_UNIT_ASSIGNED_CONTEXT ( ( #45, #114, #91 ) ) REPRESENTATION_CONTEXT ( 'NONE', 'WORKASPACE' ) );
#63 = CARTESIAN_POINT ( 'NONE',  ( 0.0000000000000000000, 0.0000000000000000000, 2.000000000000000000 ) ) ;
#64 = DIRECTION ( 'NONE',  ( 1.000000000000000000, 0.0000000000000000000, 0.0000000000000000000 ) ) ;
#65 = CARTESIAN_POINT ( 'NONE',  ( 0.0000000000000000000, 0.0000000000000000000, 2.000000000000000000 ) ) ;
#66 = EDGE_CURVE ( 'NONE', #164, #78, #167, .T. ) ;
#67 = EDGE_LOOP ( 'NONE', ( #17, #93 ) ) ;
#68 = DIRECTION ( 'NONE',  ( 1.000000000000000000, 0.0000000000000000000, 0.0000000000000000000 ) ) ;
#69 = CARTESIAN_POINT ( 'NONE',  ( -12.50000000000000000, 0.0000000000000000000, 0.0000000000000000000 ) ) ;
#70 = ORIENTED_EDGE ( 'NONE', *, *, #25, .T. ) ;
#71 = AXIS2_PLACEMENT_3D ( 'NONE', #63, #153, #76 ) ;
#72 = PERSON_AND_ORGANIZATION ( #58, #122 ) ;
#73 = FACE_OUTER_BOUND ( 'NONE', #113, .T. ) ;
#74 = PLANE ( 'NONE',  #145 ) ;
#75 = CALENDAR_DATE ( 2017, 1, 2 ) ;
#76 = DIRECTION ( 'NONE',  ( -1.000000000000000000, 0.0000000000000000000, 0.0000000000000000000 ) ) ;
#77 = DATE_AND_TIME ( #75, #129 ) ;
#78 = VERTEX_POINT ( 'NONE', #155 ) ;
#79 = MECHANICAL_CONTEXT ( 'NONE', #132, 'mechanical' ) ;
#80 = CYLINDRICAL_SURFACE ( 'NONE', #71, 12.50000000000000000 ) ;
#81 = MANIFOLD_SOLID_BREP ( 'Extrude1', #33 ) ;
#82 = PERSON_AND_ORGANIZATION_ROLE ( 'classification_officer' ) ;
#83 = ADVANCED_FACE ( 'NONE', ( #28 ), #106, .T. ) ;
#84 = AXIS2_PLACEMENT_3D ( 'NONE', #65, #1, #68 ) ;
#85 = EDGE_LOOP ( 'NONE', ( #2, #104, #21, #42 ) ) ;
#86 = LOCAL_TIME ( 8, 25, 14.00000000000000000, #99 ) ;
#87 = CARTESIAN_POINT ( 'NONE',  ( 0.0000000000000000000, 0.0000000000000000000, 0.0000000000000000000 ) ) ;
#88 = APPROVAL ( #174, 'UNSPECIFIED' ) ;
#89 = PERSON_AND_ORGANIZATION_ROLE ( 'creator' ) ;
#90 = ORIENTED_EDGE ( 'NONE', *, *, #139, .T. ) ;
#91 =( NAMED_UNIT ( * ) SI_UNIT ( $, .STERADIAN. ) SOLID_ANGLE_UNIT ( ) );
#92 = DATE_TIME_ROLE ( 'classification_date' ) ;
#93 = ORIENTED_EDGE ( 'NONE', *, *, #25, .F. ) ;
#94 = CC_DESIGN_PERSON_AND_ORGANIZATION_ASSIGNMENT ( #127, #89, ( #170 ) ) ;
#95 = DATE_AND_TIME ( #49, #4 ) ;
#96 = APPROVAL ( #116, 'UNSPECIFIED' ) ;
#97 = DIRECTION ( 'NONE',  ( 0.0000000000000000000, 0.0000000000000000000, 1.000000000000000000 ) ) ;
#98 = CARTESIAN_POINT ( 'NONE',  ( 0.0000000000000000000, 0.0000000000000000000, 2.000000000000000000 ) ) ;
#99 = COORDINATED_UNIVERSAL_TIME_OFFSET ( 5, 0, .BEHIND. ) ;
#100 = DIRECTION ( 'NONE',  ( 0.0000000000000000000, 0.0000000000000000000, 1.000000000000000000 ) ) ;
#101 = DESIGN_CONTEXT ( 'detailed design', #35, 'design' ) ;
#102 = CARTESIAN_POINT ( 'NONE',  ( 0.0000000000000000000, 0.0000000000000000000, 2.000000000000000000 ) ) ;
#103 = COORDINATED_UNIVERSAL_TIME_OFFSET ( 5, 0, .BEHIND. ) ;
#104 = ORIENTED_EDGE ( 'NONE', *, *, #66, .F. ) ;
#105 = APPROVAL_DATE_TIME ( #59, #149 ) ;
#106 = CYLINDRICAL_SURFACE ( 'NONE', #48, 12.50000000000000000 ) ;
#107 = LINE ( 'NONE', #135, #148 ) ;
#108 = ORIENTED_EDGE ( 'NONE', *, *, #56, .F. ) ;
#109 = CC_DESIGN_APPROVAL ( #96, ( #10 ) ) ;
#110 = PERSON_AND_ORGANIZATION ( #58, #122 ) ;
#111 = PRODUCT_DEFINITION ( 'UNKNOWN', '', #170, #101 ) ;
#112 = CIRCLE ( 'NONE', #158, 12.50000000000000000 ) ;
#113 = EDGE_LOOP ( 'NONE', ( #55, #90 ) ) ;
#114 =( NAMED_UNIT ( * ) PLANE_ANGLE_UNIT ( ) SI_UNIT ( $, .RADIAN. ) );
#115 = CALENDAR_DATE ( 2017, 1, 2 ) ;
#116 = APPROVAL_STATUS ( 'not_yet_approved' ) ;
#117 = LINE ( 'NONE', #51, #26 ) ;
#118 = DIRECTION ( 'NONE',  ( 0.0000000000000000000, 0.0000000000000000000, 1.000000000000000000 ) ) ;
#119 = CC_DESIGN_PERSON_AND_ORGANIZATION_ASSIGNMENT ( #18, #22, ( #170 ) ) ;
#120 = ADVANCED_FACE ( 'NONE', ( #15 ), #80, .T. ) ;
#121 = LOCAL_TIME ( 8, 25, 14.00000000000000000, #165 ) ;
#122 = ORGANIZATION ( 'UNSPECIFIED', 'UNSPECIFIED', '' ) ;
#123 = SHAPE_DEFINITION_REPRESENTATION ( #168, #160 ) ;
#124 = EDGE_CURVE ( 'NONE', #78, #6, #117, .T. ) ;
#125 = CARTESIAN_POINT ( 'NONE',  ( 0.0000000000000000000, 0.0000000000000000000, 0.0000000000000000000 ) ) ;
#126 = DIRECTION ( 'NONE',  ( -0.0000000000000000000, -0.0000000000000000000, -1.000000000000000000 ) ) ;
#127 = PERSON_AND_ORGANIZATION ( #58, #122 ) ;
#128 = CARTESIAN_POINT ( 'NONE',  ( 0.0000000000000000000, 0.0000000000000000000, 2.000000000000000000 ) ) ;
#129 = LOCAL_TIME ( 8, 25, 14.00000000000000000, #103 ) ;
#130 = DIRECTION ( 'NONE',  ( -0.0000000000000000000, -0.0000000000000000000, -1.000000000000000000 ) ) ;
#131 = PERSON_AND_ORGANIZATION_ROLE ( 'creator' ) ;
#132 = APPLICATION_CONTEXT ( 'configuration controlled 3d designs of mechanical parts and assemblies' ) ;
#133 = APPROVAL_DATE_TIME ( #77, #88 ) ;
#134 = CC_DESIGN_SECURITY_CLASSIFICATION ( #10, ( #170 ) ) ;
#135 = CARTESIAN_POINT ( 'NONE',  ( -12.50000000000000000, 0.0000000000000000000, 2.000000000000000000 ) ) ;
#136 = DIRECTION ( 'NONE',  ( 1.000000000000000000, 0.0000000000000000000, 0.0000000000000000000 ) ) ;
#137 = CC_DESIGN_DATE_AND_TIME_ASSIGNMENT ( #151, #171, ( #111 ) ) ;
#138 = DIRECTION ( 'NONE',  ( 1.000000000000000000, 0.0000000000000000000, -0.0000000000000000000 ) ) ;
#139 = EDGE_CURVE ( 'NONE', #78, #164, #159, .T. ) ;
#140 = CIRCLE ( 'NONE', #175, 12.50000000000000000 ) ;
#141 = PLANE ( 'NONE',  #30 ) ;
#142 = PERSON_AND_ORGANIZATION_ROLE ( 'design_owner' ) ;
#143 = SECURITY_CLASSIFICATION_LEVEL ( 'unclassified' ) ;
#144 = ADVANCED_FACE ( 'NONE', ( #73 ), #141, .T. ) ;
#145 = AXIS2_PLACEMENT_3D ( 'NONE', #5, #97, #16 ) ;
#146 = PRODUCT_RELATED_PRODUCT_CATEGORY ( 'detail', '', ( #166 ) ) ;
#147 = APPROVAL_PERSON_ORGANIZATION ( #14, #149, #52 ) ;
#148 = VECTOR ( 'NONE', #169, 1000.000000000000000 ) ;
#149 = APPROVAL ( #172, 'UNSPECIFIED' ) ;
#150 = COORDINATED_UNIVERSAL_TIME_OFFSET ( 5, 0, .BEHIND. ) ;
#151 = DATE_AND_TIME ( #47, #86 ) ;
#152 = DIRECTION ( 'NONE',  ( 1.000000000000000000, 0.0000000000000000000, 0.0000000000000000000 ) ) ;
#153 = DIRECTION ( 'NONE',  ( -0.0000000000000000000, -0.0000000000000000000, -1.000000000000000000 ) ) ;
#154 = DATE_AND_TIME ( #34, #163 ) ;
#155 = CARTESIAN_POINT ( 'NONE',  ( 12.50000000000000000, 1.530808498934191500E-015, 2.000000000000000000 ) ) ;
#156 = DIRECTION ( 'NONE',  ( 1.000000000000000000, 0.0000000000000000000, 0.0000000000000000000 ) ) ;
#157 = CARTESIAN_POINT ( 'NONE',  ( -12.50000000000000000, 0.0000000000000000000, 2.000000000000000000 ) ) ;
#158 = AXIS2_PLACEMENT_3D ( 'NONE', #87, #100, #136 ) ;
#159 = CIRCLE ( 'NONE', #84, 12.50000000000000000 ) ;
#160 = ADVANCED_BREP_SHAPE_REPRESENTATION ( 'Web Model 68513', ( #81, #46 ), #62 ) ;
#161 = APPLICATION_PROTOCOL_DEFINITION ( 'international standard', 'config_control_design', 1994, #35 ) ;
#162 = AXIS2_PLACEMENT_3D ( 'NONE', #128, #44, #64 ) ;
#163 = LOCAL_TIME ( 8, 25, 14.00000000000000000, #150 ) ;
#164 = VERTEX_POINT ( 'NONE', #157 ) ;
#165 = COORDINATED_UNIVERSAL_TIME_OFFSET ( 5, 0, .BEHIND. ) ;
#166 = PRODUCT ( 'Web Model 68513', 'Web Model 68513', '', ( #79 ) ) ;
#167 = CIRCLE ( 'NONE', #162, 12.50000000000000000 ) ;
#168 = PRODUCT_DEFINITION_SHAPE ( 'NONE', 'NONE',  #111 ) ;
#169 = DIRECTION ( 'NONE',  ( -0.0000000000000000000, -0.0000000000000000000, -1.000000000000000000 ) ) ;
#170 = PRODUCT_DEFINITION_FORMATION_WITH_SPECIFIED_SOURCE ( 'ANY', '', #166, .NOT_KNOWN. ) ;
#171 = DATE_TIME_ROLE ( 'creation_date' ) ;
#172 = APPROVAL_STATUS ( 'not_yet_approved' ) ;
#173 = VERTEX_POINT ( 'NONE', #69 ) ;
#174 = APPROVAL_STATUS ( 'not_yet_approved' ) ;
#175 = AXIS2_PLACEMENT_3D ( 'NONE', #125, #61, #152 ) ;
ENDSEC;
END-ISO-10303-21;
