ISO-10303-21;
HEADER;
FILE_DESCRIPTION (( 'STEP AP203' ),
    '1' );
FILE_NAME ('Web Model 15467_21248.step',
    '2022-03-29T20:40:34',
    ( '' ),
    ( '' ),
    'SwSTEP 2.0',
    'SolidWorks 2021',
    '' );
FILE_SCHEMA (( 'CONFIG_CONTROL_DESIGN' ));
ENDSEC;

DATA;
#1 = PLANE ( 'NONE',  #79 ) ;
#2 = CYLINDRICAL_SURFACE ( 'NONE', #127, 12.69999999999999929 ) ;
#3 = LOCAL_TIME ( 16, 40, 34.00000000000000000, #90 ) ;
#4 = DIRECTION ( 'NONE',  ( 1.000000000000000000, 0.000000000000000000, 0.000000000000000000 ) ) ;
#5 = VERTEX_POINT ( 'NONE', #136 ) ;
#6 = COORDINATED_UNIVERSAL_TIME_OFFSET ( 5, 0, .BEHIND. ) ;
#7 = APPLICATION_CONTEXT ( 'configuration controlled 3d designs of mechanical parts and assemblies' ) ;
#8 = ADVANCED_BREP_SHAPE_REPRESENTATION ( 'Web Model 15467_21248', ( #34, #168 ), #61 ) ;
#9 = PERSON_AND_ORGANIZATION_ROLE ( 'design_owner' ) ;
#10 = APPROVAL_ROLE ( '' ) ;
#11 = AXIS2_PLACEMENT_3D ( 'NONE', #32, #74, #123 ) ;
#12 = ADVANCED_FACE ( 'NONE', ( #57 ), #1, .F. ) ;
#13 = EDGE_CURVE ( 'NONE', #68, #120, #83, .T. ) ;
#14 = ORIENTED_EDGE ( 'NONE', *, *, #42, .F. ) ;
#15 = SECURITY_CLASSIFICATION ( '', '', #155 ) ;
#16 = DIRECTION ( 'NONE',  ( 0.000000000000000000, 0.000000000000000000, 1.000000000000000000 ) ) ;
#17 = ORIENTED_EDGE ( 'NONE', *, *, #21, .T. ) ;
#18 = ORIENTED_EDGE ( 'NONE', *, *, #13, .T. ) ;
#19 = PRODUCT ( 'Web Model 15467_21248', 'Web Model 15467_21248', '', ( #152 ) ) ;
#20 = APPROVAL_PERSON_ORGANIZATION ( #33, #109, #64 ) ;
#21 = EDGE_CURVE ( 'NONE', #108, #5, #150, .T. ) ;
#22 = LOCAL_TIME ( 16, 40, 34.00000000000000000, #82 ) ;
#23 = APPLICATION_PROTOCOL_DEFINITION ( 'international standard', 'config_control_design', 1994, #7 ) ;
#24 = AXIS2_PLACEMENT_3D ( 'NONE', #149, #72, #125 ) ;
#25 = ORIENTED_EDGE ( 'NONE', *, *, #129, .T. ) ;
#26 = DIRECTION ( 'NONE',  ( 1.000000000000000000, 0.000000000000000000, 0.000000000000000000 ) ) ;
#27 = ORGANIZATION ( 'UNSPECIFIED', 'UNSPECIFIED', '' ) ;
#28 = DIRECTION ( 'NONE',  ( 0.000000000000000000, 0.000000000000000000, 1.000000000000000000 ) ) ;
#29 = CC_DESIGN_PERSON_AND_ORGANIZATION_ASSIGNMENT ( #50, #153, ( #81 ) ) ;
#30 = CARTESIAN_POINT ( 'NONE',  ( -12.69999999999999929, 0.000000000000000000, -0.5000000000000000000 ) ) ;
#31 = CARTESIAN_POINT ( 'NONE',  ( -12.69999999999999929, 0.000000000000000000, 0.5000000000000000000 ) ) ;
#32 = CARTESIAN_POINT ( 'NONE',  ( 0.000000000000000000, 0.000000000000000000, 0.5000000000000000000 ) ) ;
#33 = PERSON_AND_ORGANIZATION ( #63, #27 ) ;
#34 = MANIFOLD_SOLID_BREP ( 'Boss-Extrude1', #40 ) ;
#35 = CC_DESIGN_APPROVAL ( #85, ( #15 ) ) ;
#36 = AXIS2_PLACEMENT_3D ( 'NONE', #44, #145, #26 ) ;
#37 = CALENDAR_DATE ( 2022, 29, 3 ) ;
#38 = PERSON_AND_ORGANIZATION ( #63, #27 ) ;
#39 = CARTESIAN_POINT ( 'NONE',  ( 0.000000000000000000, 0.000000000000000000, 0.000000000000000000 ) ) ;
#40 = CLOSED_SHELL ( 'NONE', ( #98, #158, #67, #12 ) ) ;
#41 = ORIENTED_EDGE ( 'NONE', *, *, #113, .T. ) ;
#42 = EDGE_CURVE ( 'NONE', #5, #120, #148, .T. ) ;
#43 = DATE_AND_TIME ( #169, #114 ) ;
#44 = CARTESIAN_POINT ( 'NONE',  ( 0.000000000000000000, 0.000000000000000000, -0.5000000000000000000 ) ) ;
#45 = CARTESIAN_POINT ( 'NONE',  ( -12.69999999999999929, 0.000000000000000000, 0.5000000000000000000 ) ) ;
#46 = ORIENTED_EDGE ( 'NONE', *, *, #113, .F. ) ;
#47 = DIRECTION ( 'NONE',  ( -0.000000000000000000, -0.000000000000000000, -1.000000000000000000 ) ) ;
#48 = DIRECTION ( 'NONE',  ( 1.000000000000000000, 0.000000000000000000, 0.000000000000000000 ) ) ;
#49 = DATE_AND_TIME ( #170, #54 ) ;
#50 = PERSON_AND_ORGANIZATION ( #63, #27 ) ;
#51 = COORDINATED_UNIVERSAL_TIME_OFFSET ( 5, 0, .BEHIND. ) ;
#52 = DATE_TIME_ROLE ( 'classification_date' ) ;
#53 = PRODUCT_RELATED_PRODUCT_CATEGORY ( 'detail', '', ( #19 ) ) ;
#54 = LOCAL_TIME ( 16, 40, 34.00000000000000000, #51 ) ;
#55 = DIRECTION ( 'NONE',  ( 1.000000000000000000, 0.000000000000000000, 0.000000000000000000 ) ) ;
#56 = CARTESIAN_POINT ( 'NONE',  ( 0.000000000000000000, 0.000000000000000000, 0.5000000000000000000 ) ) ;
#57 = FACE_OUTER_BOUND ( 'NONE', #70, .T. ) ;
#58 = CC_DESIGN_SECURITY_CLASSIFICATION ( #15, ( #146 ) ) ;
#59 = CARTESIAN_POINT ( 'NONE',  ( 0.000000000000000000, 0.000000000000000000, -0.5000000000000000000 ) ) ;
#60 = PERSON_AND_ORGANIZATION ( #63, #27 ) ;
#61 =( GEOMETRIC_REPRESENTATION_CONTEXT ( 3 ) GLOBAL_UNCERTAINTY_ASSIGNED_CONTEXT ( ( #156 ) ) GLOBAL_UNIT_ASSIGNED_CONTEXT ( ( #62, #141, #78 ) ) REPRESENTATION_CONTEXT ( 'NONE', 'WORKASPACE' ) );
#62 =( LENGTH_UNIT ( ) NAMED_UNIT ( * ) SI_UNIT ( .MILLI., .METRE. ) );
#63 = PERSON ( 'UNSPECIFIED', 'UNSPECIFIED', 'UNSPECIFIED', ('UNSPECIFIED'), ('UNSPECIFIED'), ('UNSPECIFIED') ) ;
#64 = APPROVAL_ROLE ( '' ) ;
#65 = CC_DESIGN_PERSON_AND_ORGANIZATION_ASSIGNMENT ( #38, #142, ( #15 ) ) ;
#66 = CALENDAR_DATE ( 2022, 29, 3 ) ;
#67 = ADVANCED_FACE ( 'NONE', ( #134 ), #167, .T. ) ;
#68 = VERTEX_POINT ( 'NONE', #30 ) ;
#69 = CC_DESIGN_PERSON_AND_ORGANIZATION_ASSIGNMENT ( #60, #154, ( #146 ) ) ;
#70 = EDGE_LOOP ( 'NONE', ( #97, #95 ) ) ;
#71 = VECTOR ( 'NONE', #88, 1000.000000000000000 ) ;
#72 = DIRECTION ( 'NONE',  ( 0.000000000000000000, 0.000000000000000000, 1.000000000000000000 ) ) ;
#73 = CC_DESIGN_PERSON_AND_ORGANIZATION_ASSIGNMENT ( #172, #105, ( #146 ) ) ;
#74 = DIRECTION ( 'NONE',  ( 0.000000000000000000, 0.000000000000000000, 1.000000000000000000 ) ) ;
#75 = DIRECTION ( 'NONE',  ( -1.000000000000000000, 0.000000000000000000, 0.000000000000000000 ) ) ;
#76 = CYLINDRICAL_SURFACE ( 'NONE', #93, 12.69999999999999929 ) ;
#77 = APPROVAL_DATE_TIME ( #92, #109 ) ;
#78 =( NAMED_UNIT ( * ) SI_UNIT ( $, .STERADIAN. ) SOLID_ANGLE_UNIT ( ) );
#79 = AXIS2_PLACEMENT_3D ( 'NONE', #59, #162, #122 ) ;
#80 = PERSON_AND_ORGANIZATION ( #63, #27 ) ;
#81 = PRODUCT_DEFINITION ( 'UNKNOWN', '', #146, #144 ) ;
#82 = COORDINATED_UNIVERSAL_TIME_OFFSET ( 5, 0, .BEHIND. ) ;
#83 = CIRCLE ( 'NONE', #36, 12.69999999999999929 ) ;
#84 = EDGE_LOOP ( 'NONE', ( #14, #116, #86, #18 ) ) ;
#85 = APPROVAL ( #139, 'UNSPECIFIED' ) ;
#86 = ORIENTED_EDGE ( 'NONE', *, *, #131, .T. ) ;
#87 = FACE_OUTER_BOUND ( 'NONE', #159, .T. ) ;
#88 = DIRECTION ( 'NONE',  ( -0.000000000000000000, -0.000000000000000000, -1.000000000000000000 ) ) ;
#89 = DIRECTION ( 'NONE',  ( -0.000000000000000000, -0.000000000000000000, -1.000000000000000000 ) ) ;
#90 = COORDINATED_UNIVERSAL_TIME_OFFSET ( 5, 0, .BEHIND. ) ;
#91 = CALENDAR_DATE ( 2022, 29, 3 ) ;
#92 = DATE_AND_TIME ( #91, #174 ) ;
#93 = AXIS2_PLACEMENT_3D ( 'NONE', #151, #89, #121 ) ;
#94 = ORIENTED_EDGE ( 'NONE', *, *, #131, .F. ) ;
#95 = ORIENTED_EDGE ( 'NONE', *, *, #129, .F. ) ;
#96 = CC_DESIGN_APPROVAL ( #109, ( #146 ) ) ;
#97 = ORIENTED_EDGE ( 'NONE', *, *, #13, .F. ) ;
#98 = ADVANCED_FACE ( 'NONE', ( #87 ), #2, .T. ) ;
#99 = LINE ( 'NONE', #31, #71 ) ;
#100 = CARTESIAN_POINT ( 'NONE',  ( 12.69999999999999929, 1.555301434917138433E-15, -0.5000000000000000000 ) ) ;
#101 = AXIS2_PLACEMENT_3D ( 'NONE', #56, #16, #55 ) ;
#102 = DIRECTION ( 'NONE',  ( 0.000000000000000000, 0.000000000000000000, 1.000000000000000000 ) ) ;
#103 = APPROVAL ( #173, 'UNSPECIFIED' ) ;
#104 = APPROVAL_DATE_TIME ( #128, #103 ) ;
#105 = PERSON_AND_ORGANIZATION_ROLE ( 'creator' ) ;
#106 = APPROVAL_STATUS ( 'not_yet_approved' ) ;
#107 = PERSON_AND_ORGANIZATION ( #63, #27 ) ;
#108 = VERTEX_POINT ( 'NONE', #45 ) ;
#109 = APPROVAL ( #106, 'UNSPECIFIED' ) ;
#110 = EDGE_LOOP ( 'NONE', ( #17, #41 ) ) ;
#111 = AXIS2_PLACEMENT_3D ( 'NONE', #124, #28, #4 ) ;
#112 = CARTESIAN_POINT ( 'NONE',  ( 12.69999999999999929, 1.555301434917138433E-15, 0.5000000000000000000 ) ) ;
#113 = EDGE_CURVE ( 'NONE', #5, #108, #143, .T. ) ;
#114 = LOCAL_TIME ( 16, 40, 34.00000000000000000, #6 ) ;
#115 = APPROVAL_PERSON_ORGANIZATION ( #107, #85, #126 ) ;
#116 = ORIENTED_EDGE ( 'NONE', *, *, #21, .F. ) ;
#117 = APPLICATION_PROTOCOL_DEFINITION ( 'international standard', 'config_control_design', 1994, #147 ) ;
#118 = PERSON_AND_ORGANIZATION ( #63, #27 ) ;
#119 = DATE_AND_TIME ( #66, #22 ) ;
#120 = VERTEX_POINT ( 'NONE', #100 ) ;
#121 = DIRECTION ( 'NONE',  ( -1.000000000000000000, 0.000000000000000000, 0.000000000000000000 ) ) ;
#122 = DIRECTION ( 'NONE',  ( 1.000000000000000000, 0.000000000000000000, -0.000000000000000000 ) ) ;
#123 = DIRECTION ( 'NONE',  ( 1.000000000000000000, 0.000000000000000000, -0.000000000000000000 ) ) ;
#124 = CARTESIAN_POINT ( 'NONE',  ( 0.000000000000000000, 0.000000000000000000, 0.5000000000000000000 ) ) ;
#125 = DIRECTION ( 'NONE',  ( 1.000000000000000000, 0.000000000000000000, 0.000000000000000000 ) ) ;
#126 = APPROVAL_ROLE ( '' ) ;
#127 = AXIS2_PLACEMENT_3D ( 'NONE', #164, #47, #75 ) ;
#128 = DATE_AND_TIME ( #37, #3 ) ;
#129 = EDGE_CURVE ( 'NONE', #120, #68, #160, .T. ) ;
#130 = APPROVAL_DATE_TIME ( #43, #85 ) ;
#131 = EDGE_CURVE ( 'NONE', #108, #68, #99, .T. ) ;
#132 = CC_DESIGN_DATE_AND_TIME_ASSIGNMENT ( #119, #52, ( #15 ) ) ;
#133 = VECTOR ( 'NONE', #135, 1000.000000000000000 ) ;
#134 = FACE_OUTER_BOUND ( 'NONE', #110, .T. ) ;
#135 = DIRECTION ( 'NONE',  ( -0.000000000000000000, -0.000000000000000000, -1.000000000000000000 ) ) ;
#136 = CARTESIAN_POINT ( 'NONE',  ( 12.69999999999999929, 1.555301434917138433E-15, 0.5000000000000000000 ) ) ;
#137 = APPROVAL_PERSON_ORGANIZATION ( #118, #103, #10 ) ;
#138 = FACE_OUTER_BOUND ( 'NONE', #84, .T. ) ;
#139 = APPROVAL_STATUS ( 'not_yet_approved' ) ;
#140 = DATE_TIME_ROLE ( 'creation_date' ) ;
#141 =( NAMED_UNIT ( * ) PLANE_ANGLE_UNIT ( ) SI_UNIT ( $, .RADIAN. ) );
#142 = PERSON_AND_ORGANIZATION_ROLE ( 'classification_officer' ) ;
#143 = CIRCLE ( 'NONE', #111, 12.69999999999999929 ) ;
#144 = DESIGN_CONTEXT ( 'detailed design', #7, 'design' ) ;
#145 = DIRECTION ( 'NONE',  ( 0.000000000000000000, 0.000000000000000000, 1.000000000000000000 ) ) ;
#146 = PRODUCT_DEFINITION_FORMATION_WITH_SPECIFIED_SOURCE ( 'ANY', '', #19, .NOT_KNOWN. ) ;
#147 = APPLICATION_CONTEXT ( 'configuration controlled 3d designs of mechanical parts and assemblies' ) ;
#148 = LINE ( 'NONE', #112, #133 ) ;
#149 = CARTESIAN_POINT ( 'NONE',  ( 0.000000000000000000, 0.000000000000000000, -0.5000000000000000000 ) ) ;
#150 = CIRCLE ( 'NONE', #101, 12.69999999999999929 ) ;
#151 = CARTESIAN_POINT ( 'NONE',  ( 0.000000000000000000, 0.000000000000000000, 0.5000000000000000000 ) ) ;
#152 = MECHANICAL_CONTEXT ( 'NONE', #147, 'mechanical' ) ;
#153 = PERSON_AND_ORGANIZATION_ROLE ( 'creator' ) ;
#154 = PERSON_AND_ORGANIZATION_ROLE ( 'design_supplier' ) ;
#155 = SECURITY_CLASSIFICATION_LEVEL ( 'unclassified' ) ;
#156 = UNCERTAINTY_MEASURE_WITH_UNIT (LENGTH_MEASURE( 1.000000000000000082E-05 ), #62, 'distance_accuracy_value', 'NONE');
#157 = COORDINATED_UNIVERSAL_TIME_OFFSET ( 5, 0, .BEHIND. ) ;
#158 = ADVANCED_FACE ( 'NONE', ( #138 ), #76, .T. ) ;
#159 = EDGE_LOOP ( 'NONE', ( #46, #161, #25, #94 ) ) ;
#160 = CIRCLE ( 'NONE', #24, 12.69999999999999929 ) ;
#161 = ORIENTED_EDGE ( 'NONE', *, *, #42, .T. ) ;
#162 = DIRECTION ( 'NONE',  ( 0.000000000000000000, 0.000000000000000000, 1.000000000000000000 ) ) ;
#163 = CC_DESIGN_PERSON_AND_ORGANIZATION_ASSIGNMENT ( #80, #9, ( #19 ) ) ;
#164 = CARTESIAN_POINT ( 'NONE',  ( 0.000000000000000000, 0.000000000000000000, 0.5000000000000000000 ) ) ;
#165 = CC_DESIGN_APPROVAL ( #103, ( #81 ) ) ;
#166 = PRODUCT_DEFINITION_SHAPE ( 'NONE', 'NONE',  #81 ) ;
#167 = PLANE ( 'NONE',  #11 ) ;
#168 = AXIS2_PLACEMENT_3D ( 'NONE', #39, #102, #48 ) ;
#169 = CALENDAR_DATE ( 2022, 29, 3 ) ;
#170 = CALENDAR_DATE ( 2022, 29, 3 ) ;
#171 = CC_DESIGN_DATE_AND_TIME_ASSIGNMENT ( #49, #140, ( #81 ) ) ;
#172 = PERSON_AND_ORGANIZATION ( #63, #27 ) ;
#173 = APPROVAL_STATUS ( 'not_yet_approved' ) ;
#174 = LOCAL_TIME ( 16, 40, 34.00000000000000000, #157 ) ;
#175 = SHAPE_DEFINITION_REPRESENTATION ( #166, #8 ) ;
ENDSEC;
END-ISO-10303-21;
