ISO-10303-21;
HEADER;
FILE_DESCRIPTION (( 'STEP AP203' ),
    '1' );
FILE_NAME ('20136-E0W.STEP',
    '2019-07-16T11:12:30',
    ( '' ),
    ( '' ),
    'SwSTEP 2.0',
    'SolidWorks 2018',
    '' );
FILE_SCHEMA (( 'CONFIG_CONTROL_DESIGN' ));
ENDSEC;

DATA;
#1 = CC_DESIGN_PERSON_AND_ORGANIZATION_ASSIGNMENT ( #153, #293, ( #83 ) ) ;
#2 = DIRECTION ( 'NONE',  ( 0.0000000000000000000, -1.000000000000000000, -3.122502256758252770E-16 ) ) ;
#3 = ADVANCED_BREP_SHAPE_REPRESENTATION ( '20136-E0W', ( #79, #63 ), #115 ) ;
#4 = PERSON_AND_ORGANIZATION ( #290, #210 ) ;
#5 = FACE_OUTER_BOUND ( 'NONE', #289, .T. ) ;
#6 = DIRECTION ( 'NONE',  ( 0.0000000000000000000, 1.000000000000000000, 3.035187280212104896E-16 ) ) ;
#7 = EDGE_CURVE ( 'NONE', #261, #111, #200, .T. ) ;
#8 = CIRCLE ( 'NONE', #270, 8.677000000000012037 ) ;
#9 = FACE_OUTER_BOUND ( 'NONE', #21, .T. ) ;
#10 = APPROVAL_STATUS ( 'not_yet_approved' ) ;
#11 = CC_DESIGN_PERSON_AND_ORGANIZATION_ASSIGNMENT ( #202, #33, ( #133 ) ) ;
#12 = APPROVAL_STATUS ( 'not_yet_approved' ) ;
#13 = PERSON_AND_ORGANIZATION ( #290, #210 ) ;
#14 = VECTOR ( 'NONE', #116, 100.0000000000000000 ) ;
#15 = ORIENTED_EDGE ( 'NONE', *, *, #247, .F. ) ;
#16 = VERTEX_POINT ( 'NONE', #224 ) ;
#17 = CARTESIAN_POINT ( 'NONE',  ( 0.0000000000000000000, 1.032159465319189383E-15, -8.530499999999996419 ) ) ;
#18 = ADVANCED_FACE ( 'NONE', ( #158 ), #80, .T. ) ;
#19 = DIRECTION ( 'NONE',  ( 0.0000000000000000000, -3.061515884555943639E-16, 1.000000000000000000 ) ) ;
#20 = LOCAL_TIME ( 7, 12, 30.00000000000000000, #37 ) ;
#21 = EDGE_LOOP ( 'NONE', ( #241, #246, #72 ) ) ;
#22 = CARTESIAN_POINT ( 'NONE',  ( 0.0000000000000000000, 1.269999999999998908, 0.03305573174662190805 ) ) ;
#23 = CARTESIAN_POINT ( 'NONE',  ( 1.530808498934191324E-16, 1.250000000000000000, -0.1464999999999998248 ) ) ;
#24 =( NAMED_UNIT ( * ) SI_UNIT ( $, .STERADIAN. ) SOLID_ANGLE_UNIT ( ) );
#25 = SHAPE_DEFINITION_REPRESENTATION ( #239, #3 ) ;
#26 = DIRECTION ( 'NONE',  ( 0.0000000000000000000, 1.000000000000000000, 3.198752519952618945E-16 ) ) ;
#27 = CC_DESIGN_APPROVAL ( #152, ( #93 ) ) ;
#28 = ADVANCED_FACE ( 'NONE', ( #127 ), #62, .T. ) ;
#29 = COORDINATED_UNIVERSAL_TIME_OFFSET ( 5, 0, .BEHIND. ) ;
#30 = ORIENTED_EDGE ( 'NONE', *, *, #247, .T. ) ;
#31 = EDGE_CURVE ( 'NONE', #16, #218, #245, .T. ) ;
#32 = APPROVAL_ROLE ( '' ) ;
#33 = PERSON_AND_ORGANIZATION_ROLE ( 'creator' ) ;
#34 = DATE_AND_TIME ( #94, #198 ) ;
#35 = EDGE_LOOP ( 'NONE', ( #151, #106, #179, #176 ) ) ;
#36 = DIRECTION ( 'NONE',  ( 0.0000000000000000000, 1.000000000000000000, 3.073328992872298832E-16 ) ) ;
#37 = COORDINATED_UNIVERSAL_TIME_OFFSET ( 5, 0, .BEHIND. ) ;
#38 = CLOSED_SHELL ( 'NONE', ( #28, #219, #18, #237, #129, #42, #164, #161, #268 ) ) ;
#39 = AXIS2_PLACEMENT_3D ( 'NONE', #144, #274, #71 ) ;
#40 = CARTESIAN_POINT ( 'NONE',  ( 1.555301434917137101E-16, -1.269999999999998908, -0.1465000000000004077 ) ) ;
#41 = CC_DESIGN_DATE_AND_TIME_ASSIGNMENT ( #102, #157, ( #93 ) ) ;
#42 = ADVANCED_FACE ( 'NONE', ( #9 ), #251, .T. ) ;
#43 = ORIENTED_EDGE ( 'NONE', *, *, #191, .T. ) ;
#44 = DIRECTION ( 'NONE',  ( -1.224646799147353207E-16, 1.000000000000000000, 0.0000000000000000000 ) ) ;
#45 = ORIENTED_EDGE ( 'NONE', *, *, #220, .T. ) ;
#46 = AXIS2_PLACEMENT_3D ( 'NONE', #287, #175, #221 ) ;
#47 = DIRECTION ( 'NONE',  ( 0.0000000000000000000, 1.000000000000000000, 3.073328992872298832E-16 ) ) ;
#48 = DIRECTION ( 'NONE',  ( 0.0000000000000000000, -1.000000000000000000, -3.073328992872298832E-16 ) ) ;
#49 = ORIENTED_EDGE ( 'NONE', *, *, #191, .F. ) ;
#50 = DIRECTION ( 'NONE',  ( 0.0000000000000000000, -3.061515884555892856E-16, 1.000000000000000000 ) ) ;
#51 = CARTESIAN_POINT ( 'NONE',  ( 0.0000000000000000000, 4.299675034468303699E-18, 0.03305573174662151947 ) ) ;
#52 = CARTESIAN_POINT ( 'NONE',  ( 0.0000000000000000000, 1.032159465319189383E-15, -8.530499999999996419 ) ) ;
#53 = LOCAL_TIME ( 7, 12, 30.00000000000000000, #139 ) ;
#54 = CARTESIAN_POINT ( 'NONE',  ( 1.531100420348923230E-16, -1.250238371924817127, 0.05595637113279935959 ) ) ;
#55 = VECTOR ( 'NONE', #298, 100.0000000000000000 ) ;
#56 = CIRCLE ( 'NONE', #183, 8.677000000000012037 ) ;
#57 = CC_DESIGN_PERSON_AND_ORGANIZATION_ASSIGNMENT ( #141, #263, ( #133 ) ) ;
#58 = CC_DESIGN_SECURITY_CLASSIFICATION ( #89, ( #133 ) ) ;
#59 = AXIS2_PLACEMENT_3D ( 'NONE', #205, #92, #273 ) ;
#60 = DESIGN_CONTEXT ( 'detailed design', #216, 'design' ) ;
#61 = CONICAL_SURFACE ( 'NONE', #120, 1.269999999999998908, 0.7119523476195173117 ) ;
#62 = CONICAL_SURFACE ( 'NONE', #114, 1.269999999999998908, 0.7119523476195173117 ) ;
#63 = AXIS2_PLACEMENT_3D ( 'NONE', #243, #150, #156 ) ;
#64 = ORIENTED_EDGE ( 'NONE', *, *, #222, .F. ) ;
#65 = CIRCLE ( 'NONE', #59, 1.250000000000000000 ) ;
#66 = DIRECTION ( 'NONE',  ( -0.0000000000000000000, 3.061515884555892856E-16, -1.000000000000000000 ) ) ;
#67 = CC_DESIGN_PERSON_AND_ORGANIZATION_ASSIGNMENT ( #104, #178, ( #93 ) ) ;
#68 = ORIENTED_EDGE ( 'NONE', *, *, #168, .F. ) ;
#69 = DIRECTION ( 'NONE',  ( 0.0000000000000000000, 0.6533131137999165228, -0.7570878253789696810 ) ) ;
#70 = DIRECTION ( 'NONE',  ( 1.000000000000000000, 1.224646799147353207E-16, 3.749275628560214164E-32 ) ) ;
#71 = DIRECTION ( 'NONE',  ( 0.0000000000000000000, 1.000000000000000000, 3.061515884555943639E-16 ) ) ;
#72 = ORIENTED_EDGE ( 'NONE', *, *, #226, .T. ) ;
#73 = DIRECTION ( 'NONE',  ( 0.0000000000000000000, 0.0000000000000000000, 1.000000000000000000 ) ) ;
#74 = DIRECTION ( 'NONE',  ( -0.0000000000000000000, 3.061515884555892856E-16, -1.000000000000000000 ) ) ;
#75 = VECTOR ( 'NONE', #186, 100.0000000000000142 ) ;
#76 = DIRECTION ( 'NONE',  ( -1.000000000000000000, 0.0000000000000000000, 0.0000000000000000000 ) ) ;
#77 = DIRECTION ( 'NONE',  ( -0.0000000000000000000, 3.061515884555892856E-16, -1.000000000000000000 ) ) ;
#78 = AXIS2_PLACEMENT_3D ( 'NONE', #136, #159, #36 ) ;
#79 = MANIFOLD_SOLID_BREP ( '20136-001-1-solid1', #38 ) ;
#80 = CYLINDRICAL_SURFACE ( 'NONE', #46, 1.269999999999998908 ) ;
#81 = EDGE_LOOP ( 'NONE', ( #97, #276, #234 ) ) ;
#82 = DATE_AND_TIME ( #215, #109 ) ;
#83 = PRODUCT ( '20136-E0W', '20136-E0W', '', ( #196 ) ) ;
#84 = ORIENTED_EDGE ( 'NONE', *, *, #238, .T. ) ;
#85 = APPLICATION_PROTOCOL_DEFINITION ( 'international standard', 'config_control_design', 1994, #216 ) ;
#86 = EDGE_CURVE ( 'NONE', #218, #16, #154, .T. ) ;
#87 = FACE_OUTER_BOUND ( 'NONE', #203, .T. ) ;
#88 = ORIENTED_EDGE ( 'NONE', *, *, #206, .T. ) ;
#89 = SECURITY_CLASSIFICATION ( '', '', #292 ) ;
#90 = CALENDAR_DATE ( 2019, 16, 7 ) ;
#91 = AXIS2_PLACEMENT_3D ( 'NONE', #51, #119, #48 ) ;
#92 = DIRECTION ( 'NONE',  ( -0.0000000000000000000, 3.061515884555943639E-16, -1.000000000000000000 ) ) ;
#93 = PRODUCT_DEFINITION ( 'UNKNOWN', '', #133, #60 ) ;
#94 = CALENDAR_DATE ( 2019, 16, 7 ) ;
#95 = FACE_OUTER_BOUND ( 'NONE', #278, .T. ) ;
#96 = ORIENTED_EDGE ( 'NONE', *, *, #168, .T. ) ;
#97 = ORIENTED_EDGE ( 'NONE', *, *, #285, .F. ) ;
#98 = EDGE_CURVE ( 'NONE', #111, #235, #217, .T. ) ;
#99 = CARTESIAN_POINT ( 'NONE',  ( 1.555301434917137101E-16, -1.269999999999998908, -0.1265000000000021108 ) ) ;
#100 = CARTESIAN_POINT ( 'NONE',  ( 1.543054966925664336E-16, 1.250000000000000000, -0.1464999999999998248 ) ) ;
#101 = CARTESIAN_POINT ( 'NONE',  ( 0.0000000000000000000, 1.032159465319189383E-15, -8.530499999999996419 ) ) ;
#102 = DATE_AND_TIME ( #90, #20 ) ;
#103 = EDGE_LOOP ( 'NONE', ( #211, #160, #148, #128 ) ) ;
#104 = PERSON_AND_ORGANIZATION ( #290, #210 ) ;
#105 = CARTESIAN_POINT ( 'NONE',  ( 0.0000000000000000000, -1.596597791907730878E-15, 0.05595637113279955388 ) ) ;
#106 = ORIENTED_EDGE ( 'NONE', *, *, #226, .F. ) ;
#107 = AXIS2_PLACEMENT_3D ( 'NONE', #208, #184, #236 ) ;
#108 = APPROVAL_ROLE ( '' ) ;
#109 = LOCAL_TIME ( 7, 12, 30.00000000000000000, #29 ) ;
#110 = CONICAL_SURFACE ( 'NONE', #123, 1.250000000000000000, 0.7853981633974613796 ) ;
#111 = VERTEX_POINT ( 'NONE', #181 ) ;
#112 = PERSON_AND_ORGANIZATION_ROLE ( 'classification_officer' ) ;
#113 = VERTEX_POINT ( 'NONE', #204 ) ;
#114 = AXIS2_PLACEMENT_3D ( 'NONE', #228, #66, #230 ) ;
#115 =( GEOMETRIC_REPRESENTATION_CONTEXT ( 3 ) GLOBAL_UNCERTAINTY_ASSIGNED_CONTEXT ( ( #132 ) ) GLOBAL_UNIT_ASSIGNED_CONTEXT ( ( #260, #258, #24 ) ) REPRESENTATION_CONTEXT ( 'NONE', 'WORKASPACE' ) );
#116 = DIRECTION ( 'NONE',  ( -0.0000000000000000000, 3.061515884555943639E-16, -1.000000000000000000 ) ) ;
#117 = CIRCLE ( 'NONE', #213, 1.250238371924807135 ) ;
#118 = EDGE_LOOP ( 'NONE', ( #68, #45, #43, #267 ) ) ;
#119 = DIRECTION ( 'NONE',  ( -0.0000000000000000000, 3.061515884555892856E-16, -1.000000000000000000 ) ) ;
#120 = AXIS2_PLACEMENT_3D ( 'NONE', #121, #77, #126 ) ;
#121 = CARTESIAN_POINT ( 'NONE',  ( 0.0000000000000000000, 4.299675034468303699E-18, 0.03305573174662151947 ) ) ;
#122 = DIRECTION ( 'NONE',  ( 8.659560562355046257E-17, 0.7071067811865564545, 0.7071067811865385799 ) ) ;
#123 = AXIS2_PLACEMENT_3D ( 'NONE', #146, #240, #2 ) ;
#124 = DIRECTION ( 'NONE',  ( -0.0000000000000000000, 3.061515884555943639E-16, -1.000000000000000000 ) ) ;
#125 = APPROVAL_DATE_TIME ( #244, #152 ) ;
#126 = DIRECTION ( 'NONE',  ( 0.0000000000000000000, 1.000000000000000000, 3.073328992872298832E-16 ) ) ;
#127 = FACE_OUTER_BOUND ( 'NONE', #103, .T. ) ;
#128 = ORIENTED_EDGE ( 'NONE', *, *, #98, .F. ) ;
#129 = ADVANCED_FACE ( 'NONE', ( #87 ), #233, .T. ) ;
#130 = APPROVAL ( #286, 'UNSPECIFIED' ) ;
#131 = AXIS2_PLACEMENT_3D ( 'NONE', #105, #269, #6 ) ;
#132 = UNCERTAINTY_MEASURE_WITH_UNIT (LENGTH_MEASURE( 1.000000000000000082E-05 ), #260, 'distance_accuracy_value', 'NONE');
#133 = PRODUCT_DEFINITION_FORMATION_WITH_SPECIFIED_SOURCE ( 'ANY', '', #83, .NOT_KNOWN. ) ;
#134 = ORIENTED_EDGE ( 'NONE', *, *, #31, .F. ) ;
#135 = DATE_TIME_ROLE ( 'classification_date' ) ;
#136 = CARTESIAN_POINT ( 'NONE',  ( 0.0000000000000000000, 5.314791575589171259E-17, -0.1265000000000017222 ) ) ;
#137 = VERTEX_POINT ( 'NONE', #201 ) ;
#138 = AXIS2_PLACEMENT_3D ( 'NONE', #280, #74, #167 ) ;
#139 = COORDINATED_UNIVERSAL_TIME_OFFSET ( 5, 0, .BEHIND. ) ;
#140 = CARTESIAN_POINT ( 'NONE',  ( 0.0000000000000000000, 1.269999999999998908, -0.1464999999999996305 ) ) ;
#141 = PERSON_AND_ORGANIZATION ( #290, #210 ) ;
#142 = VECTOR ( 'NONE', #283, 100.0000000000000000 ) ;
#143 = FACE_OUTER_BOUND ( 'NONE', #118, .T. ) ;
#144 = CARTESIAN_POINT ( 'NONE',  ( 0.0000000000000000000, 5.927094752500313296E-17, -0.1465000000000002134 ) ) ;
#145 = ORIENTED_EDGE ( 'NONE', *, *, #86, .F. ) ;
#146 = CARTESIAN_POINT ( 'NONE',  ( 0.0000000000000000000, 5.927094752500313296E-17, -0.1465000000000002134 ) ) ;
#147 = PERSON_AND_ORGANIZATION ( #290, #210 ) ;
#148 = ORIENTED_EDGE ( 'NONE', *, *, #206, .F. ) ;
#149 = CARTESIAN_POINT ( 'NONE',  ( 0.0000000000000000000, -1.250000000000000000, -0.1465000000000006020 ) ) ;
#150 = DIRECTION ( 'NONE',  ( 0.0000000000000000000, 0.0000000000000000000, 1.000000000000000000 ) ) ;
#151 = ORIENTED_EDGE ( 'NONE', *, *, #194, .F. ) ;
#152 = APPROVAL ( #10, 'UNSPECIFIED' ) ;
#153 = PERSON_AND_ORGANIZATION ( #290, #210 ) ;
#154 = CIRCLE ( 'NONE', #242, 1.269999999999998908 ) ;
#155 = EDGE_CURVE ( 'NONE', #137, #261, #56, .T. ) ;
#156 = DIRECTION ( 'NONE',  ( 1.000000000000000000, 0.0000000000000000000, 0.0000000000000000000 ) ) ;
#157 = DATE_TIME_ROLE ( 'creation_date' ) ;
#158 = FACE_OUTER_BOUND ( 'NONE', #172, .T. ) ;
#159 = DIRECTION ( 'NONE',  ( 0.0000000000000000000, -3.061515884555943639E-16, 1.000000000000000000 ) ) ;
#160 = ORIENTED_EDGE ( 'NONE', *, *, #194, .T. ) ;
#161 = ADVANCED_FACE ( 'NONE', ( #95 ), #174, .T. ) ;
#162 = APPROVAL_PERSON_ORGANIZATION ( #4, #152, #108 ) ;
#163 = LINE ( 'NONE', #23, #300 ) ;
#164 = ADVANCED_FACE ( 'NONE', ( #143 ), #265, .T. ) ;
#165 = APPROVAL_PERSON_ORGANIZATION ( #147, #130, #195 ) ;
#166 = CARTESIAN_POINT ( 'NONE',  ( 0.0000000000000000000, 5.927094752500313296E-17, -0.1465000000000002134 ) ) ;
#167 = DIRECTION ( 'NONE',  ( 0.0000000000000000000, -1.000000000000000000, -3.073328992872298832E-16 ) ) ;
#168 = EDGE_CURVE ( 'NONE', #266, #218, #199, .T. ) ;
#169 = CARTESIAN_POINT ( 'NONE',  ( 0.0000000000000000000, -1.596597791907730878E-15, 0.05595637113279955388 ) ) ;
#170 = APPROVAL_DATE_TIME ( #34, #130 ) ;
#171 = FACE_OUTER_BOUND ( 'NONE', #81, .T. ) ;
#172 = EDGE_LOOP ( 'NONE', ( #88, #96, #256, #49 ) ) ;
#173 = EDGE_CURVE ( 'NONE', #113, #297, #65, .T. ) ;
#174 = CONICAL_SURFACE ( 'NONE', #282, 1.250000000000000000, 0.7853981633974613796 ) ;
#175 = DIRECTION ( 'NONE',  ( -0.0000000000000000000, 3.061515884555943639E-16, -1.000000000000000000 ) ) ;
#176 = ORIENTED_EDGE ( 'NONE', *, *, #220, .F. ) ;
#177 = CC_DESIGN_APPROVAL ( #130, ( #133 ) ) ;
#178 = PERSON_AND_ORGANIZATION_ROLE ( 'creator' ) ;
#179 = ORIENTED_EDGE ( 'NONE', *, *, #98, .T. ) ;
#180 = ORIENTED_EDGE ( 'NONE', *, *, #238, .F. ) ;
#181 = CARTESIAN_POINT ( 'NONE',  ( 0.0000000000000000000, 1.250238371924813574, 0.05595637113279974817 ) ) ;
#182 = ORIENTED_EDGE ( 'NONE', *, *, #222, .T. ) ;
#183 = AXIS2_PLACEMENT_3D ( 'NONE', #17, #70, #44 ) ;
#184 = DIRECTION ( 'NONE',  ( -0.0000000000000000000, 3.061515884555943639E-16, -1.000000000000000000 ) ) ;
#185 = APPROVAL ( #12, 'UNSPECIFIED' ) ;
#186 = DIRECTION ( 'NONE',  ( 0.0000000000000000000, -0.7071067811865570096, 0.7071067811865380248 ) ) ;
#187 = APPLICATION_CONTEXT ( 'configuration controlled 3d designs of mechanical parts and assemblies' ) ;
#188 = CC_DESIGN_DATE_AND_TIME_ASSIGNMENT ( #275, #135, ( #89 ) ) ;
#189 = FACE_OUTER_BOUND ( 'NONE', #35, .T. ) ;
#190 = DIRECTION ( 'NONE',  ( 0.0000000000000000000, 1.000000000000000000, 3.035187280212104896E-16 ) ) ;
#191 = EDGE_CURVE ( 'NONE', #235, #16, #248, .T. ) ;
#192 = CALENDAR_DATE ( 2019, 16, 7 ) ;
#193 = SPHERICAL_SURFACE ( 'NONE', #249, 8.677000000000012037 ) ;
#194 = EDGE_CURVE ( 'NONE', #261, #266, #229, .T. ) ;
#195 = APPROVAL_ROLE ( '' ) ;
#196 = MECHANICAL_CONTEXT ( 'NONE', #187, 'mechanical' ) ;
#197 = DIRECTION ( 'NONE',  ( 0.0000000000000000000, 1.000000000000000000, 3.198752519952618945E-16 ) ) ;
#198 = LOCAL_TIME ( 7, 12, 30.00000000000000000, #281 ) ;
#199 = LINE ( 'NONE', #40, #14 ) ;
#200 = CIRCLE ( 'NONE', #131, 1.250238371924807135 ) ;
#201 = CARTESIAN_POINT ( 'NONE',  ( 0.0000000000000000000, -1.093004853899926688E-15, 0.1465000000000160618 ) ) ;
#202 = PERSON_AND_ORGANIZATION ( #290, #210 ) ;
#203 = EDGE_LOOP ( 'NONE', ( #272, #84 ) ) ;
#204 = CARTESIAN_POINT ( 'NONE',  ( 0.0000000000000000000, -1.250000000000000000, -0.1465000000000006020 ) ) ;
#205 = CARTESIAN_POINT ( 'NONE',  ( 0.0000000000000000000, 5.927094752500313296E-17, -0.1465000000000002134 ) ) ;
#206 = EDGE_CURVE ( 'NONE', #235, #266, #225, .T. ) ;
#207 = APPROVAL_DATE_TIME ( #82, #185 ) ;
#208 = CARTESIAN_POINT ( 'NONE',  ( 0.0000000000000000000, 5.927094752500308365E-17, -0.1465000000000000191 ) ) ;
#209 = CARTESIAN_POINT ( 'NONE',  ( 1.555301434917136855E-16, -1.269999999999998908, 0.03305573174662113090 ) ) ;
#210 = ORGANIZATION ( 'UNSPECIFIED', 'UNSPECIFIED', '' ) ;
#211 = ORIENTED_EDGE ( 'NONE', *, *, #7, .F. ) ;
#212 = DIRECTION ( 'NONE',  ( 1.000000000000000000, 0.0000000000000000000, -0.0000000000000000000 ) ) ;
#213 = AXIS2_PLACEMENT_3D ( 'NONE', #169, #50, #190 ) ;
#214 = CARTESIAN_POINT ( 'NONE',  ( 1.555301434917137101E-16, -1.269999999999998908, 0.03305573174662113090 ) ) ;
#215 = CALENDAR_DATE ( 2019, 16, 7 ) ;
#216 = APPLICATION_CONTEXT ( 'configuration controlled 3d designs of mechanical parts and assemblies' ) ;
#217 = LINE ( 'NONE', #22, #271 ) ;
#218 = VERTEX_POINT ( 'NONE', #99 ) ;
#219 = ADVANCED_FACE ( 'NONE', ( #5 ), #110, .T. ) ;
#220 = EDGE_CURVE ( 'NONE', #266, #235, #288, .T. ) ;
#221 = DIRECTION ( 'NONE',  ( 0.0000000000000000000, 1.000000000000000000, 3.073328992872298832E-16 ) ) ;
#222 = EDGE_CURVE ( 'NONE', #297, #16, #163, .T. ) ;
#223 = PERSON_AND_ORGANIZATION ( #290, #210 ) ;
#224 = CARTESIAN_POINT ( 'NONE',  ( 0.0000000000000000000, 1.269999999999998908, -0.1265000000000013336 ) ) ;
#225 = CIRCLE ( 'NONE', #91, 1.269999999999998908 ) ;
#226 = EDGE_CURVE ( 'NONE', #111, #261, #117, .T. ) ;
#227 = DIRECTION ( 'NONE',  ( 1.000000000000000000, 0.0000000000000000000, -0.0000000000000000000 ) ) ;
#228 = CARTESIAN_POINT ( 'NONE',  ( 0.0000000000000000000, 4.299675034468303699E-18, 0.03305573174662151947 ) ) ;
#229 = LINE ( 'NONE', #209, #142 ) ;
#230 = DIRECTION ( 'NONE',  ( 0.0000000000000000000, 1.000000000000000000, 3.073328992872298832E-16 ) ) ;
#231 = AXIS2_PLACEMENT_3D ( 'NONE', #166, #124, #262 ) ;
#232 = CARTESIAN_POINT ( 'NONE',  ( 0.0000000000000000000, 5.927094752500313296E-17, -0.1465000000000002134 ) ) ;
#233 = PLANE ( 'NONE',  #39 ) ;
#234 = ORIENTED_EDGE ( 'NONE', *, *, #7, .T. ) ;
#235 = VERTEX_POINT ( 'NONE', #301 ) ;
#236 = DIRECTION ( 'NONE',  ( 0.0000000000000000000, 1.000000000000000000, 3.073328992872298832E-16 ) ) ;
#237 = ADVANCED_FACE ( 'NONE', ( #171 ), #193, .T. ) ;
#238 = EDGE_CURVE ( 'NONE', #297, #113, #250, .T. ) ;
#239 = PRODUCT_DEFINITION_SHAPE ( 'NONE', 'NONE',  #93 ) ;
#240 = DIRECTION ( 'NONE',  ( 0.0000000000000000000, -3.061515884555943639E-16, 1.000000000000000000 ) ) ;
#241 = ORIENTED_EDGE ( 'NONE', *, *, #155, .F. ) ;
#242 = AXIS2_PLACEMENT_3D ( 'NONE', #279, #277, #47 ) ;
#243 = CARTESIAN_POINT ( 'NONE',  ( 0.0000000000000000000, 0.0000000000000000000, 0.0000000000000000000 ) ) ;
#244 = DATE_AND_TIME ( #264, #53 ) ;
#245 = CIRCLE ( 'NONE', #78, 1.269999999999998908 ) ;
#246 = ORIENTED_EDGE ( 'NONE', *, *, #285, .T. ) ;
#247 = EDGE_CURVE ( 'NONE', #113, #218, #296, .T. ) ;
#248 = LINE ( 'NONE', #140, #55 ) ;
#249 = AXIS2_PLACEMENT_3D ( 'NONE', #101, #212, #26 ) ;
#250 = CIRCLE ( 'NONE', #231, 1.250000000000000000 ) ;
#251 = SPHERICAL_SURFACE ( 'NONE', #253, 8.677000000000012037 ) ;
#252 = CC_DESIGN_APPROVAL ( #185, ( #89 ) ) ;
#253 = AXIS2_PLACEMENT_3D ( 'NONE', #294, #227, #197 ) ;
#254 = DIRECTION ( 'NONE',  ( 0.0000000000000000000, -1.000000000000000000, -3.122502256758252770E-16 ) ) ;
#255 = LOCAL_TIME ( 7, 12, 30.00000000000000000, #259 ) ;
#256 = ORIENTED_EDGE ( 'NONE', *, *, #86, .T. ) ;
#257 = PRODUCT_RELATED_PRODUCT_CATEGORY ( 'detail', '', ( #83 ) ) ;
#258 =( NAMED_UNIT ( * ) PLANE_ANGLE_UNIT ( ) SI_UNIT ( $, .RADIAN. ) );
#259 = COORDINATED_UNIVERSAL_TIME_OFFSET ( 5, 0, .BEHIND. ) ;
#260 =( LENGTH_UNIT ( ) NAMED_UNIT ( * ) SI_UNIT ( .CENTI., .METRE. ) );
#261 = VERTEX_POINT ( 'NONE', #54 ) ;
#262 = DIRECTION ( 'NONE',  ( 0.0000000000000000000, 1.000000000000000000, 3.122502256758252770E-16 ) ) ;
#263 = PERSON_AND_ORGANIZATION_ROLE ( 'design_supplier' ) ;
#264 = CALENDAR_DATE ( 2019, 16, 7 ) ;
#265 = CYLINDRICAL_SURFACE ( 'NONE', #107, 1.269999999999998908 ) ;
#266 = VERTEX_POINT ( 'NONE', #214 ) ;
#267 = ORIENTED_EDGE ( 'NONE', *, *, #31, .T. ) ;
#268 = ADVANCED_FACE ( 'NONE', ( #189 ), #61, .T. ) ;
#269 = DIRECTION ( 'NONE',  ( 0.0000000000000000000, -3.061515884555892856E-16, 1.000000000000000000 ) ) ;
#270 = AXIS2_PLACEMENT_3D ( 'NONE', #52, #76, #73 ) ;
#271 = VECTOR ( 'NONE', #69, 100.0000000000000142 ) ;
#272 = ORIENTED_EDGE ( 'NONE', *, *, #173, .T. ) ;
#273 = DIRECTION ( 'NONE',  ( 0.0000000000000000000, 1.000000000000000000, 3.122502256758252770E-16 ) ) ;
#274 = DIRECTION ( 'NONE',  ( -0.0000000000000000000, 3.061515884555943639E-16, -1.000000000000000000 ) ) ;
#275 = DATE_AND_TIME ( #192, #255 ) ;
#276 = ORIENTED_EDGE ( 'NONE', *, *, #155, .T. ) ;
#277 = DIRECTION ( 'NONE',  ( 0.0000000000000000000, -3.061515884555943639E-16, 1.000000000000000000 ) ) ;
#278 = EDGE_LOOP ( 'NONE', ( #64, #299, #30, #134 ) ) ;
#279 = CARTESIAN_POINT ( 'NONE',  ( 0.0000000000000000000, 5.314791575589171259E-17, -0.1265000000000017222 ) ) ;
#280 = CARTESIAN_POINT ( 'NONE',  ( 0.0000000000000000000, 4.299675034468303699E-18, 0.03305573174662151947 ) ) ;
#281 = COORDINATED_UNIVERSAL_TIME_OFFSET ( 5, 0, .BEHIND. ) ;
#282 = AXIS2_PLACEMENT_3D ( 'NONE', #232, #19, #254 ) ;
#283 = DIRECTION ( 'NONE',  ( 8.000778136560578833E-17, -0.6533131137999160787, -0.7570878253789701251 ) ) ;
#284 = APPLICATION_PROTOCOL_DEFINITION ( 'international standard', 'config_control_design', 1994, #187 ) ;
#285 = EDGE_CURVE ( 'NONE', #137, #111, #8, .T. ) ;
#286 = APPROVAL_STATUS ( 'not_yet_approved' ) ;
#287 = CARTESIAN_POINT ( 'NONE',  ( 0.0000000000000000000, 5.927094752500308365E-17, -0.1465000000000000191 ) ) ;
#288 = CIRCLE ( 'NONE', #138, 1.269999999999998908 ) ;
#289 = EDGE_LOOP ( 'NONE', ( #180, #182, #145, #15 ) ) ;
#290 = PERSON ( 'UNSPECIFIED', 'UNSPECIFIED', 'UNSPECIFIED', ('UNSPECIFIED'), ('UNSPECIFIED'), ('UNSPECIFIED') ) ;
#291 = APPROVAL_PERSON_ORGANIZATION ( #223, #185, #32 ) ;
#292 = SECURITY_CLASSIFICATION_LEVEL ( 'unclassified' ) ;
#293 = PERSON_AND_ORGANIZATION_ROLE ( 'design_owner' ) ;
#294 = CARTESIAN_POINT ( 'NONE',  ( 0.0000000000000000000, 1.032159465319189383E-15, -8.530499999999996419 ) ) ;
#295 = CC_DESIGN_PERSON_AND_ORGANIZATION_ASSIGNMENT ( #13, #112, ( #89 ) ) ;
#296 = LINE ( 'NONE', #149, #75 ) ;
#297 = VERTEX_POINT ( 'NONE', #100 ) ;
#298 = DIRECTION ( 'NONE',  ( -0.0000000000000000000, 3.061515884555943639E-16, -1.000000000000000000 ) ) ;
#299 = ORIENTED_EDGE ( 'NONE', *, *, #173, .F. ) ;
#300 = VECTOR ( 'NONE', #122, 100.0000000000000000 ) ;
#301 = CARTESIAN_POINT ( 'NONE',  ( 0.0000000000000000000, 1.269999999999998908, 0.03305573174662190805 ) ) ;
ENDSEC;
END-ISO-10303-21;
