ISO-10303-21;
HEADER;
FILE_DESCRIPTION (( 'STEP AP203' ),
    '1' );
FILE_NAME ('Web Model 45075.STEP',
    '2017-01-31T15:17:17',
    ( '' ),
    ( '' ),
    'SwSTEP 2.0',
    'SolidWorks 2016',
    '' );
FILE_SCHEMA (( 'CONFIG_CONTROL_DESIGN' ));
ENDSEC;

DATA;
#1 = APPROVAL_DATE_TIME ( #133, #60 ) ;
#2 = FACE_OUTER_BOUND ( 'NONE', #106, .T. ) ;
#3 = DATE_AND_TIME ( #34, #82 ) ;
#4 = CC_DESIGN_APPROVAL ( #84, ( #117 ) ) ;
#5 = DIRECTION ( 'NONE',  ( 1.000000000000000000, 0.0000000000000000000, 0.0000000000000000000 ) ) ;
#6 = DIRECTION ( 'NONE',  ( 0.0000000000000000000, 0.0000000000000000000, 1.000000000000000000 ) ) ;
#7 = AXIS2_PLACEMENT_3D ( 'NONE', #43, #80, #5 ) ;
#8 = COORDINATED_UNIVERSAL_TIME_OFFSET ( 5, 0, .BEHIND. ) ;
#9 =( LENGTH_UNIT ( ) NAMED_UNIT ( * ) SI_UNIT ( .MILLI., .METRE. ) );
#10 = AXIS2_PLACEMENT_3D ( 'NONE', #78, #13, #23 ) ;
#11 = CARTESIAN_POINT ( 'NONE',  ( 0.0000000000000000000, 0.0000000000000000000, 0.0000000000000000000 ) ) ;
#12 = APPLICATION_PROTOCOL_DEFINITION ( 'international standard', 'config_control_design', 1994, #175 ) ;
#13 = DIRECTION ( 'NONE',  ( 0.0000000000000000000, 0.0000000000000000000, 1.000000000000000000 ) ) ;
#14 = ORIENTED_EDGE ( 'NONE', *, *, #90, .T. ) ;
#15 = DIRECTION ( 'NONE',  ( 1.000000000000000000, 0.0000000000000000000, 0.0000000000000000000 ) ) ;
#16 = AXIS2_PLACEMENT_3D ( 'NONE', #167, #6, #62 ) ;
#17 = SECURITY_CLASSIFICATION ( '', '', #55 ) ;
#18 = CC_DESIGN_PERSON_AND_ORGANIZATION_ASSIGNMENT ( #112, #96, ( #117 ) ) ;
#19 = DATE_TIME_ROLE ( 'classification_date' ) ;
#20 = APPROVAL_STATUS ( 'not_yet_approved' ) ;
#21 = CIRCLE ( 'NONE', #7, 6.250000000000000000 ) ;
#22 = CALENDAR_DATE ( 2017, 31, 1 ) ;
#23 = DIRECTION ( 'NONE',  ( 1.000000000000000000, 0.0000000000000000000, 0.0000000000000000000 ) ) ;
#24 = VERTEX_POINT ( 'NONE', #168 ) ;
#25 = PERSON_AND_ORGANIZATION ( #50, #146 ) ;
#26 = DIRECTION ( 'NONE',  ( 1.000000000000000000, 0.0000000000000000000, 0.0000000000000000000 ) ) ;
#27 = DIRECTION ( 'NONE',  ( 1.000000000000000000, 0.0000000000000000000, 0.0000000000000000000 ) ) ;
#28 = DIRECTION ( 'NONE',  ( 1.000000000000000000, 0.0000000000000000000, 0.0000000000000000000 ) ) ;
#29 = LINE ( 'NONE', #128, #64 ) ;
#30 = COORDINATED_UNIVERSAL_TIME_OFFSET ( 5, 0, .BEHIND. ) ;
#31 = PERSON_AND_ORGANIZATION_ROLE ( 'classification_officer' ) ;
#32 = ORIENTED_EDGE ( 'NONE', *, *, #69, .T. ) ;
#33 = COORDINATED_UNIVERSAL_TIME_OFFSET ( 5, 0, .BEHIND. ) ;
#34 = CALENDAR_DATE ( 2017, 31, 1 ) ;
#35 = ADVANCED_FACE ( 'NONE', ( #39 ), #136, .T. ) ;
#36 = SHAPE_DEFINITION_REPRESENTATION ( #170, #85 ) ;
#37 = CC_DESIGN_DATE_AND_TIME_ASSIGNMENT ( #125, #105, ( #117 ) ) ;
#38 = DIRECTION ( 'NONE',  ( 1.000000000000000000, 0.0000000000000000000, -0.0000000000000000000 ) ) ;
#39 = FACE_OUTER_BOUND ( 'NONE', #97, .T. ) ;
#40 = APPROVAL_DATE_TIME ( #141, #84 ) ;
#41 = AXIS2_PLACEMENT_3D ( 'NONE', #114, #115, #27 ) ;
#42 = PERSON_AND_ORGANIZATION ( #50, #146 ) ;
#43 = CARTESIAN_POINT ( 'NONE',  ( 0.0000000000000000000, 0.0000000000000000000, -3.000000000000000000 ) ) ;
#44 = EDGE_CURVE ( 'NONE', #109, #24, #29, .T. ) ;
#45 = DIRECTION ( 'NONE',  ( 0.0000000000000000000, 0.0000000000000000000, 1.000000000000000000 ) ) ;
#46 = CARTESIAN_POINT ( 'NONE',  ( -6.250000000000000000, 7.654042494670957600E-016, 0.0000000000000000000 ) ) ;
#47 = PRODUCT_DEFINITION_FORMATION_WITH_SPECIFIED_SOURCE ( 'ANY', '', #161, .NOT_KNOWN. ) ;
#48 = APPLICATION_PROTOCOL_DEFINITION ( 'international standard', 'config_control_design', 1994, #67 ) ;
#49 = PERSON_AND_ORGANIZATION_ROLE ( 'design_owner' ) ;
#50 = PERSON ( 'UNSPECIFIED', 'UNSPECIFIED', 'UNSPECIFIED', ('UNSPECIFIED'), ('UNSPECIFIED'), ('UNSPECIFIED') ) ;
#51 = DATE_AND_TIME ( #123, #56 ) ;
#52 = AXIS2_PLACEMENT_3D ( 'NONE', #102, #63, #15 ) ;
#53 = ORIENTED_EDGE ( 'NONE', *, *, #127, .T. ) ;
#54 = ADVANCED_FACE ( 'NONE', ( #2 ), #77, .T. ) ;
#55 = SECURITY_CLASSIFICATION_LEVEL ( 'unclassified' ) ;
#56 = LOCAL_TIME ( 10, 17, 17.00000000000000000, #120 ) ;
#57 = AXIS2_PLACEMENT_3D ( 'NONE', #76, #75, #28 ) ;
#58 = CC_DESIGN_SECURITY_CLASSIFICATION ( #17, ( #47 ) ) ;
#59 = VERTEX_POINT ( 'NONE', #46 ) ;
#60 = APPROVAL ( #86, 'UNSPECIFIED' ) ;
#61 = UNCERTAINTY_MEASURE_WITH_UNIT (LENGTH_MEASURE( 1.000000000000000100E-005 ), #9, 'distance_accuracy_value', 'NONE');
#62 = DIRECTION ( 'NONE',  ( 1.000000000000000000, 0.0000000000000000000, -0.0000000000000000000 ) ) ;
#63 = DIRECTION ( 'NONE',  ( 0.0000000000000000000, 0.0000000000000000000, 1.000000000000000000 ) ) ;
#64 = VECTOR ( 'NONE', #45, 1000.000000000000000 ) ;
#65 = CIRCLE ( 'NONE', #41, 6.250000000000000000 ) ;
#66 = PERSON_AND_ORGANIZATION ( #50, #146 ) ;
#67 = APPLICATION_CONTEXT ( 'configuration controlled 3d designs of mechanical parts and assemblies' ) ;
#68 =( NAMED_UNIT ( * ) SI_UNIT ( $, .STERADIAN. ) SOLID_ANGLE_UNIT ( ) );
#69 = EDGE_CURVE ( 'NONE', #169, #59, #124, .T. ) ;
#70 = APPROVAL_ROLE ( '' ) ;
#71 = ORIENTED_EDGE ( 'NONE', *, *, #74, .F. ) ;
#72 = CC_DESIGN_APPROVAL ( #60, ( #47 ) ) ;
#73 = ORIENTED_EDGE ( 'NONE', *, *, #44, .T. ) ;
#74 = EDGE_CURVE ( 'NONE', #169, #109, #21, .T. ) ;
#75 = DIRECTION ( 'NONE',  ( 0.0000000000000000000, 0.0000000000000000000, 1.000000000000000000 ) ) ;
#76 = CARTESIAN_POINT ( 'NONE',  ( 0.0000000000000000000, 0.0000000000000000000, -3.000000000000000000 ) ) ;
#77 = PLANE ( 'NONE',  #16 ) ;
#78 = CARTESIAN_POINT ( 'NONE',  ( 0.0000000000000000000, 0.0000000000000000000, 0.0000000000000000000 ) ) ;
#79 = ORIENTED_EDGE ( 'NONE', *, *, #69, .F. ) ;
#80 = DIRECTION ( 'NONE',  ( 0.0000000000000000000, 0.0000000000000000000, 1.000000000000000000 ) ) ;
#81 = LOCAL_TIME ( 10, 17, 17.00000000000000000, #30 ) ;
#82 = LOCAL_TIME ( 10, 17, 17.00000000000000000, #8 ) ;
#83 = APPROVAL_DATE_TIME ( #51, #160 ) ;
#84 = APPROVAL ( #20, 'UNSPECIFIED' ) ;
#85 = ADVANCED_BREP_SHAPE_REPRESENTATION ( 'Web Model 45075', ( #122, #89 ), #142 ) ;
#86 = APPROVAL_STATUS ( 'not_yet_approved' ) ;
#87 = DIRECTION ( 'NONE',  ( 0.0000000000000000000, 0.0000000000000000000, 1.000000000000000000 ) ) ;
#88 = ADVANCED_FACE ( 'NONE', ( #140 ), #98, .T. ) ;
#89 = AXIS2_PLACEMENT_3D ( 'NONE', #11, #87, #134 ) ;
#90 = EDGE_CURVE ( 'NONE', #59, #24, #65, .T. ) ;
#91 = CC_DESIGN_PERSON_AND_ORGANIZATION_ASSIGNMENT ( #100, #131, ( #47 ) ) ;
#92 = EDGE_CURVE ( 'NONE', #24, #59, #147, .T. ) ;
#93 = CC_DESIGN_PERSON_AND_ORGANIZATION_ASSIGNMENT ( #107, #49, ( #161 ) ) ;
#94 = PERSON_AND_ORGANIZATION_ROLE ( 'design_supplier' ) ;
#95 = LOCAL_TIME ( 10, 17, 17.00000000000000000, #108 ) ;
#96 = PERSON_AND_ORGANIZATION_ROLE ( 'creator' ) ;
#97 = EDGE_LOOP ( 'NONE', ( #79, #139, #73, #145 ) ) ;
#98 = CYLINDRICAL_SURFACE ( 'NONE', #52, 6.250000000000000000 ) ;
#99 = CC_DESIGN_PERSON_AND_ORGANIZATION_ASSIGNMENT ( #154, #94, ( #47 ) ) ;
#100 = PERSON_AND_ORGANIZATION ( #50, #146 ) ;
#101 = CLOSED_SHELL ( 'NONE', ( #88, #35, #164, #54 ) ) ;
#102 = CARTESIAN_POINT ( 'NONE',  ( 0.0000000000000000000, 0.0000000000000000000, -3.000000000000000000 ) ) ;
#103 = ORIENTED_EDGE ( 'NONE', *, *, #127, .F. ) ;
#104 = FACE_OUTER_BOUND ( 'NONE', #151, .T. ) ;
#105 = DATE_TIME_ROLE ( 'creation_date' ) ;
#106 = EDGE_LOOP ( 'NONE', ( #121, #14 ) ) ;
#107 = PERSON_AND_ORGANIZATION ( #50, #146 ) ;
#108 = COORDINATED_UNIVERSAL_TIME_OFFSET ( 5, 0, .BEHIND. ) ;
#109 = VERTEX_POINT ( 'NONE', #153 ) ;
#110 = PRODUCT_RELATED_PRODUCT_CATEGORY ( 'detail', '', ( #161 ) ) ;
#111 = CARTESIAN_POINT ( 'NONE',  ( 0.0000000000000000000, 0.0000000000000000000, -3.000000000000000000 ) ) ;
#112 = PERSON_AND_ORGANIZATION ( #50, #146 ) ;
#113 = CC_DESIGN_PERSON_AND_ORGANIZATION_ASSIGNMENT ( #42, #31, ( #17 ) ) ;
#114 = CARTESIAN_POINT ( 'NONE',  ( 0.0000000000000000000, 0.0000000000000000000, 0.0000000000000000000 ) ) ;
#115 = DIRECTION ( 'NONE',  ( 0.0000000000000000000, 0.0000000000000000000, 1.000000000000000000 ) ) ;
#116 = VECTOR ( 'NONE', #143, 1000.000000000000000 ) ;
#117 = PRODUCT_DEFINITION ( 'UNKNOWN', '', #47, #130 ) ;
#118 = APPROVAL_ROLE ( '' ) ;
#119 = AXIS2_PLACEMENT_3D ( 'NONE', #126, #156, #26 ) ;
#120 = COORDINATED_UNIVERSAL_TIME_OFFSET ( 5, 0, .BEHIND. ) ;
#121 = ORIENTED_EDGE ( 'NONE', *, *, #92, .T. ) ;
#122 = MANIFOLD_SOLID_BREP ( 'Extrude1', #101 ) ;
#123 = CALENDAR_DATE ( 2017, 31, 1 ) ;
#124 = LINE ( 'NONE', #144, #116 ) ;
#125 = DATE_AND_TIME ( #174, #81 ) ;
#126 = CARTESIAN_POINT ( 'NONE',  ( 0.0000000000000000000, 0.0000000000000000000, -3.000000000000000000 ) ) ;
#127 = EDGE_CURVE ( 'NONE', #109, #169, #137, .T. ) ;
#128 = CARTESIAN_POINT ( 'NONE',  ( 6.250000000000000000, 0.0000000000000000000, -3.000000000000000000 ) ) ;
#129 = CC_DESIGN_DATE_AND_TIME_ASSIGNMENT ( #3, #19, ( #17 ) ) ;
#130 = DESIGN_CONTEXT ( 'detailed design', #175, 'design' ) ;
#131 = PERSON_AND_ORGANIZATION_ROLE ( 'creator' ) ;
#132 = AXIS2_PLACEMENT_3D ( 'NONE', #111, #166, #38 ) ;
#133 = DATE_AND_TIME ( #22, #95 ) ;
#134 = DIRECTION ( 'NONE',  ( 1.000000000000000000, 0.0000000000000000000, 0.0000000000000000000 ) ) ;
#135 =( NAMED_UNIT ( * ) PLANE_ANGLE_UNIT ( ) SI_UNIT ( $, .RADIAN. ) );
#136 = CYLINDRICAL_SURFACE ( 'NONE', #119, 6.250000000000000000 ) ;
#137 = CIRCLE ( 'NONE', #57, 6.250000000000000000 ) ;
#138 = CARTESIAN_POINT ( 'NONE',  ( -6.250000000000000000, 7.654042494670957600E-016, -3.000000000000000000 ) ) ;
#139 = ORIENTED_EDGE ( 'NONE', *, *, #74, .T. ) ;
#140 = FACE_OUTER_BOUND ( 'NONE', #173, .T. ) ;
#141 = DATE_AND_TIME ( #171, #148 ) ;
#142 =( GEOMETRIC_REPRESENTATION_CONTEXT ( 3 ) GLOBAL_UNCERTAINTY_ASSIGNED_CONTEXT ( ( #61 ) ) GLOBAL_UNIT_ASSIGNED_CONTEXT ( ( #9, #135, #68 ) ) REPRESENTATION_CONTEXT ( 'NONE', 'WORKASPACE' ) );
#143 = DIRECTION ( 'NONE',  ( 0.0000000000000000000, 0.0000000000000000000, 1.000000000000000000 ) ) ;
#144 = CARTESIAN_POINT ( 'NONE',  ( -6.250000000000000000, 7.654042494670957600E-016, -3.000000000000000000 ) ) ;
#145 = ORIENTED_EDGE ( 'NONE', *, *, #90, .F. ) ;
#146 = ORGANIZATION ( 'UNSPECIFIED', 'UNSPECIFIED', '' ) ;
#147 = CIRCLE ( 'NONE', #10, 6.250000000000000000 ) ;
#148 = LOCAL_TIME ( 10, 17, 17.00000000000000000, #33 ) ;
#149 = PERSON_AND_ORGANIZATION ( #50, #146 ) ;
#150 = APPROVAL_STATUS ( 'not_yet_approved' ) ;
#151 = EDGE_LOOP ( 'NONE', ( #103, #71 ) ) ;
#152 = APPROVAL_PERSON_ORGANIZATION ( #25, #84, #172 ) ;
#153 = CARTESIAN_POINT ( 'NONE',  ( 6.250000000000000000, 0.0000000000000000000, -3.000000000000000000 ) ) ;
#154 = PERSON_AND_ORGANIZATION ( #50, #146 ) ;
#155 = APPROVAL_PERSON_ORGANIZATION ( #66, #60, #118 ) ;
#156 = DIRECTION ( 'NONE',  ( 0.0000000000000000000, 0.0000000000000000000, 1.000000000000000000 ) ) ;
#157 = PLANE ( 'NONE',  #132 ) ;
#158 = APPROVAL_PERSON_ORGANIZATION ( #149, #160, #70 ) ;
#159 = ORIENTED_EDGE ( 'NONE', *, *, #44, .F. ) ;
#160 = APPROVAL ( #150, 'UNSPECIFIED' ) ;
#161 = PRODUCT ( 'Web Model 45075', 'Web Model 45075', '', ( #162 ) ) ;
#162 = MECHANICAL_CONTEXT ( 'NONE', #67, 'mechanical' ) ;
#163 = ORIENTED_EDGE ( 'NONE', *, *, #92, .F. ) ;
#164 = ADVANCED_FACE ( 'NONE', ( #104 ), #157, .F. ) ;
#165 = CC_DESIGN_APPROVAL ( #160, ( #17 ) ) ;
#166 = DIRECTION ( 'NONE',  ( 0.0000000000000000000, 0.0000000000000000000, 1.000000000000000000 ) ) ;
#167 = CARTESIAN_POINT ( 'NONE',  ( 0.0000000000000000000, 0.0000000000000000000, 0.0000000000000000000 ) ) ;
#168 = CARTESIAN_POINT ( 'NONE',  ( 6.250000000000000000, 0.0000000000000000000, 0.0000000000000000000 ) ) ;
#169 = VERTEX_POINT ( 'NONE', #138 ) ;
#170 = PRODUCT_DEFINITION_SHAPE ( 'NONE', 'NONE',  #117 ) ;
#171 = CALENDAR_DATE ( 2017, 31, 1 ) ;
#172 = APPROVAL_ROLE ( '' ) ;
#173 = EDGE_LOOP ( 'NONE', ( #53, #32, #163, #159 ) ) ;
#174 = CALENDAR_DATE ( 2017, 31, 1 ) ;
#175 = APPLICATION_CONTEXT ( 'configuration controlled 3d designs of mechanical parts and assemblies' ) ;
ENDSEC;
END-ISO-10303-21;
