ISO-10303-21;
HEADER;
FILE_DESCRIPTION (( 'STEP AP203' ),
    '1' );
FILE_NAME ('4334-E0W.STEP',
    '2015-06-17T20:47:48',
    ( 'admin' ),
    ( '' ),
    'SwSTEP 2.0',
    'SolidWorks 2014',
    '' );
FILE_SCHEMA (( 'CONFIG_CONTROL_DESIGN' ));
ENDSEC;

DATA;
#1 = AXIS2_PLACEMENT_3D ( 'NONE', #159, #78, #246 ) ;
#2 = CARTESIAN_POINT ( 'NONE',  ( -25.15457501304956300, 0.0000000000000000000, 1.567421169266336500 ) ) ;
#3 = VERTEX_POINT ( 'NONE', #176 ) ;
#4 = DIRECTION ( 'NONE',  ( -0.6380938353330486400, 0.0000000000000000000, -0.7699586075302751200 ) ) ;
#5 = ORIENTED_EDGE ( 'NONE', *, *, #279, .T. ) ;
#6 = ADVANCED_FACE ( 'NONE', ( #314 ), #191, .T. ) ;
#7 = CARTESIAN_POINT ( 'NONE',  ( 0.0000000000000000000, 0.0000000000000000000, 132.9000000000000100 ) ) ;
#8 = DIRECTION ( 'NONE',  ( 0.0000000000000000000, 0.0000000000000000000, -1.000000000000000000 ) ) ;
#9 = CARTESIAN_POINT ( 'NONE',  ( 0.0000000000000000000, 0.0000000000000000000, -1.567421169266364200 ) ) ;
#10 = ORIENTED_EDGE ( 'NONE', *, *, #72, .T. ) ;
#11 = AXIS2_PLACEMENT_3D ( 'NONE', #108, #318, #85 ) ;
#12 = APPROVAL ( #286, 'UNSPECIFIED' ) ;
#13 = AXIS2_PLACEMENT_3D ( 'NONE', #241, #63, #352 ) ;
#14 = CARTESIAN_POINT ( 'NONE',  ( 0.0000000000000000000, 0.0000000000000000000, 3.899999999999999900 ) ) ;
#15 = ORIENTED_EDGE ( 'NONE', *, *, #107, .T. ) ;
#16 = CC_DESIGN_PERSON_AND_ORGANIZATION_ASSIGNMENT ( #234, #359, ( #326 ) ) ;
#17 = AXIS2_PLACEMENT_3D ( 'NONE', #48, #121, #276 ) ;
#18 = ORIENTED_EDGE ( 'NONE', *, *, #287, .F. ) ;
#19 = APPROVAL_ROLE ( '' ) ;
#20 = DIRECTION ( 'NONE',  ( -0.6380938353331442300, 7.814395729963934000E-017, 0.7699586075301958500 ) ) ;
#21 = DIRECTION ( 'NONE',  ( -1.000000000000000000, 1.224646799147353200E-016, 0.0000000000000000000 ) ) ;
#22 = DIRECTION ( 'NONE',  ( 1.000000000000000000, 0.0000000000000000000, 0.0000000000000000000 ) ) ;
#23 = EDGE_CURVE ( 'NONE', #41, #213, #140, .T. ) ;
#24 = AXIS2_PLACEMENT_3D ( 'NONE', #193, #128, #33 ) ;
#25 = CALENDAR_DATE ( 2015, 17, 6 ) ;
#26 = DIRECTION ( 'NONE',  ( 0.0000000000000000000, 1.000000000000000000, 0.0000000000000000000 ) ) ;
#27 = CARTESIAN_POINT ( 'NONE',  ( 0.0000000000000000000, 0.0000000000000000000, 1.567421169266336500 ) ) ;
#28 = ADVANCED_FACE ( 'NONE', ( #335 ), #77, .T. ) ;
#29 = EDGE_CURVE ( 'NONE', #305, #41, #225, .T. ) ;
#30 = DIRECTION ( 'NONE',  ( 0.6380938353330486400, 7.814395729962763000E-017, -0.7699586075302751200 ) ) ;
#31 = ORIENTED_EDGE ( 'NONE', *, *, #150, .F. ) ;
#32 = AXIS2_PLACEMENT_3D ( 'NONE', #139, #149, #71 ) ;
#33 = DIRECTION ( 'NONE',  ( -1.000000000000000000, 0.0000000000000000000, 0.0000000000000000000 ) ) ;
#34 = CARTESIAN_POINT ( 'NONE',  ( 0.0000000000000000000, 0.0000000000000000000, 3.899999999999999900 ) ) ;
#35 = DIRECTION ( 'NONE',  ( -0.0000000000000000000, -0.0000000000000000000, 1.000000000000000000 ) ) ;
#36 = ORIENTED_EDGE ( 'NONE', *, *, #157, .F. ) ;
#37 = APPROVAL_PERSON_ORGANIZATION ( #363, #89, #211 ) ;
#38 = CONICAL_SURFACE ( 'NONE', #67, 25.39999999999999900, 0.6920200466039160300 ) ;
#39 = CARTESIAN_POINT ( 'NONE',  ( -25.39999999999999900, 3.110602869834276900E-015, -1.271278077542514800 ) ) ;
#40 = DIRECTION ( 'NONE',  ( 0.6380938353331442300, 0.0000000000000000000, 0.7699586075301958500 ) ) ;
#41 = VERTEX_POINT ( 'NONE', #39 ) ;
#42 = EDGE_CURVE ( 'NONE', #90, #262, #221, .T. ) ;
#43 = DIRECTION ( 'NONE',  ( 1.000000000000000000, 0.0000000000000000000, 0.0000000000000000000 ) ) ;
#44 = DATE_AND_TIME ( #65, #100 ) ;
#45 = PERSON_AND_ORGANIZATION_ROLE ( 'design_owner' ) ;
#46 = DIRECTION ( 'NONE',  ( 1.000000000000000000, 0.0000000000000000000, 0.0000000000000000000 ) ) ;
#47 = VECTOR ( 'NONE', #20, 1000.000000000000200 ) ;
#48 = CARTESIAN_POINT ( 'NONE',  ( 0.0000000000000000000, 0.0000000000000000000, -132.9000000000000100 ) ) ;
#49 = ADVANCED_FACE ( 'NONE', ( #91 ), #38, .T. ) ;
#50 = AXIS2_PLACEMENT_3D ( 'NONE', #302, #350, #126 ) ;
#51 = CIRCLE ( 'NONE', #32, 25.15457501304956300 ) ;
#52 = DATE_AND_TIME ( #192, #268 ) ;
#53 = DIRECTION ( 'NONE',  ( -0.0000000000000000000, -0.0000000000000000000, 1.000000000000000000 ) ) ;
#54 = DIRECTION ( 'NONE',  ( -0.0000000000000000000, -0.0000000000000000000, 1.000000000000000000 ) ) ;
#55 = ORIENTED_EDGE ( 'NONE', *, *, #23, .T. ) ;
#56 = ORIENTED_EDGE ( 'NONE', *, *, #72, .F. ) ;
#57 = DIRECTION ( 'NONE',  ( -1.000000000000000000, 0.0000000000000000000, 0.0000000000000000000 ) ) ;
#58 = EDGE_CURVE ( 'NONE', #366, #69, #298, .T. ) ;
#59 = APPROVAL ( #74, 'UNSPECIFIED' ) ;
#60 = CARTESIAN_POINT ( 'NONE',  ( -3.080546977364307300E-015, -25.15457501304951300, -1.567421169266364200 ) ) ;
#61 = DATE_TIME_ROLE ( 'classification_date' ) ;
#62 = AXIS2_PLACEMENT_3D ( 'NONE', #84, #331, #306 ) ;
#63 = DIRECTION ( 'NONE',  ( 0.0000000000000000000, 0.0000000000000000000, -1.000000000000000000 ) ) ;
#64 = CC_DESIGN_DATE_AND_TIME_ASSIGNMENT ( #52, #303, ( #68 ) ) ;
#65 = CALENDAR_DATE ( 2015, 17, 6 ) ;
#66 = DIRECTION ( 'NONE',  ( -1.000000000000000000, 0.0000000000000000000, 0.0000000000000000000 ) ) ;
#67 = AXIS2_PLACEMENT_3D ( 'NONE', #164, #348, #87 ) ;
#68 = PRODUCT_DEFINITION ( 'UNKNOWN', '', #326, #353 ) ;
#69 = VERTEX_POINT ( 'NONE', #336 ) ;
#70 = ORIENTED_EDGE ( 'NONE', *, *, #279, .F. ) ;
#71 = DIRECTION ( 'NONE',  ( -1.000000000000000000, 0.0000000000000000000, 0.0000000000000000000 ) ) ;
#72 = EDGE_CURVE ( 'NONE', #175, #320, #203, .T. ) ;
#73 = AXIS2_PLACEMENT_3D ( 'NONE', #237, #168, #265 ) ;
#74 = APPROVAL_STATUS ( 'not_yet_approved' ) ;
#75 = ORIENTED_EDGE ( 'NONE', *, *, #299, .F. ) ;
#76 = PERSON_AND_ORGANIZATION ( #308, #154 ) ;
#77 = SPHERICAL_SURFACE ( 'NONE', #269, 136.8000000000000100 ) ;
#78 = DIRECTION ( 'NONE',  ( -1.000000000000000000, 0.0000000000000000000, 0.0000000000000000000 ) ) ;
#79 = CARTESIAN_POINT ( 'NONE',  ( 0.0000000000000000000, 0.0000000000000000000, -1.271278077542514800 ) ) ;
#80 = AXIS2_PLACEMENT_3D ( 'NONE', #152, #317, #88 ) ;
#81 = DIRECTION ( 'NONE',  ( -1.000000000000000000, 0.0000000000000000000, 0.0000000000000000000 ) ) ;
#82 = ORIENTED_EDGE ( 'NONE', *, *, #351, .F. ) ;
#83 = CARTESIAN_POINT ( 'NONE',  ( 0.0000000000000000000, 8.376584106167896100E-015, -3.899999999999987000 ) ) ;
#84 = CARTESIAN_POINT ( 'NONE',  ( 0.0000000000000000000, 0.0000000000000000000, -1.567421169266364200 ) ) ;
#85 = DIRECTION ( 'NONE',  ( 1.000000000000000000, 0.0000000000000000000, 0.0000000000000000000 ) ) ;
#86 = EDGE_LOOP ( 'NONE', ( #309, #239, #96, #15 ) ) ;
#87 = DIRECTION ( 'NONE',  ( 1.000000000000000000, 0.0000000000000000000, 0.0000000000000000000 ) ) ;
#88 = DIRECTION ( 'NONE',  ( 1.000000000000000000, 0.0000000000000000000, 0.0000000000000000000 ) ) ;
#89 = APPROVAL ( #360, 'UNSPECIFIED' ) ;
#90 = VERTEX_POINT ( 'NONE', #83 ) ;
#91 = FACE_OUTER_BOUND ( 'NONE', #329, .T. ) ;
#92 = CC_DESIGN_PERSON_AND_ORGANIZATION_ASSIGNMENT ( #76, #45, ( #248 ) ) ;
#93 = MECHANICAL_CONTEXT ( 'NONE', #263, 'mechanical' ) ;
#94 = APPROVAL_DATE_TIME ( #44, #12 ) ;
#95 = SECURITY_CLASSIFICATION_LEVEL ( 'unclassified' ) ;
#96 = ORIENTED_EDGE ( 'NONE', *, *, #58, .T. ) ;
#97 = ORIENTED_EDGE ( 'NONE', *, *, #141, .F. ) ;
#98 = AXIS2_PLACEMENT_3D ( 'NONE', #231, #43, #124 ) ;
#99 = CARTESIAN_POINT ( 'NONE',  ( -25.39999999999999900, 3.110602869834276900E-015, -1.271278077542514800 ) ) ;
#100 = LOCAL_TIME ( 16, 47, 48.00000000000000000, #132 ) ;
#101 = CARTESIAN_POINT ( 'NONE',  ( 25.15457501304956300, 3.080546977364314000E-015, 1.567421169266336500 ) ) ;
#102 = EDGE_CURVE ( 'NONE', #289, #41, #186, .T. ) ;
#103 = CARTESIAN_POINT ( 'NONE',  ( 0.0000000000000000000, 0.0000000000000000000, 1.271278077542431500 ) ) ;
#104 = CALENDAR_DATE ( 2015, 17, 6 ) ;
#105 = LOCAL_TIME ( 16, 47, 48.00000000000000000, #202 ) ;
#106 = DIRECTION ( 'NONE',  ( 1.000000000000000000, 0.0000000000000000000, 0.0000000000000000000 ) ) ;
#107 = EDGE_CURVE ( 'NONE', #69, #262, #325, .T. ) ;
#108 = CARTESIAN_POINT ( 'NONE',  ( 0.0000000000000000000, 0.0000000000000000000, -1.567421169266364200 ) ) ;
#109 = PERSON_AND_ORGANIZATION_ROLE ( 'classification_officer' ) ;
#110 = CIRCLE ( 'NONE', #50, 25.15457501304956300 ) ;
#111 = ORIENTED_EDGE ( 'NONE', *, *, #210, .F. ) ;
#112 = SPHERICAL_SURFACE ( 'NONE', #1, 136.8000000000000100 ) ;
#113 = EDGE_LOOP ( 'NONE', ( #31, #361, #75, #18, #280 ) ) ;
#114 = PERSON_AND_ORGANIZATION ( #308, #154 ) ;
#115 = ORIENTED_EDGE ( 'NONE', *, *, #358, .F. ) ;
#116 = AXIS2_PLACEMENT_3D ( 'NONE', #79, #54, #315 ) ;
#117 = ORIENTED_EDGE ( 'NONE', *, *, #351, .T. ) ;
#118 = COORDINATED_UNIVERSAL_TIME_OFFSET ( 5, 0, .BEHIND. ) ;
#119 = CC_DESIGN_APPROVAL ( #89, ( #326 ) ) ;
#120 = DIRECTION ( 'NONE',  ( -0.0000000000000000000, -0.0000000000000000000, 1.000000000000000000 ) ) ;
#121 = DIRECTION ( 'NONE',  ( 1.000000000000000000, -0.0000000000000000000, 0.0000000000000000000 ) ) ;
#122 = CIRCLE ( 'NONE', #73, 25.15457501304956300 ) ;
#123 = ADVANCED_FACE ( 'NONE', ( #162 ), #212, .T. ) ;
#124 = DIRECTION ( 'NONE',  ( 0.0000000000000000000, 0.0000000000000000000, -1.000000000000000000 ) ) ;
#125 = FACE_OUTER_BOUND ( 'NONE', #327, .T. ) ;
#126 = DIRECTION ( 'NONE',  ( -1.000000000000000000, 0.0000000000000000000, 0.0000000000000000000 ) ) ;
#127 = ORIENTED_EDGE ( 'NONE', *, *, #218, .T. ) ;
#128 = DIRECTION ( 'NONE',  ( 0.0000000000000000000, 0.0000000000000000000, -1.000000000000000000 ) ) ;
#129 = CARTESIAN_POINT ( 'NONE',  ( 0.0000000000000000000, 0.0000000000000000000, 1.567421169266308700 ) ) ;
#130 = CIRCLE ( 'NONE', #310, 136.8000000000000100 ) ;
#131 = UNCERTAINTY_MEASURE_WITH_UNIT (LENGTH_MEASURE( 1.000000000000000100E-005 ), #223, 'distance_accuracy_value', 'NONE');
#132 = COORDINATED_UNIVERSAL_TIME_OFFSET ( 5, 0, .BEHIND. ) ;
#133 = APPROVAL_ROLE ( '' ) ;
#134 = DIRECTION ( 'NONE',  ( 0.0000000000000000000, 0.0000000000000000000, -1.000000000000000000 ) ) ;
#135 = CARTESIAN_POINT ( 'NONE',  ( 0.0000000000000000000, 0.0000000000000000000, -132.9000000000000100 ) ) ;
#136 = AXIS2_PLACEMENT_3D ( 'NONE', #9, #8, #22 ) ;
#137 = LOCAL_TIME ( 16, 47, 48.00000000000000000, #169 ) ;
#138 = SPHERICAL_SURFACE ( 'NONE', #365, 136.8000000000000100 ) ;
#139 = CARTESIAN_POINT ( 'NONE',  ( 0.0000000000000000000, 0.0000000000000000000, 1.567421169266308700 ) ) ;
#140 = LINE ( 'NONE', #217, #356 ) ;
#141 = EDGE_CURVE ( 'NONE', #305, #3, #145, .T. ) ;
#142 = CYLINDRICAL_SURFACE ( 'NONE', #330, 25.39999999999999900 ) ;
#143 = ORIENTED_EDGE ( 'NONE', *, *, #146, .F. ) ;
#144 = EDGE_LOOP ( 'NONE', ( #244, #364, #274, #143, #283 ) ) ;
#145 = LINE ( 'NONE', #190, #367 ) ;
#146 = EDGE_CURVE ( 'NONE', #69, #305, #179, .T. ) ;
#147 = ADVANCED_FACE ( 'NONE', ( #201 ), #243, .T. ) ;
#148 = CARTESIAN_POINT ( 'NONE',  ( 0.0000000000000000000, 0.0000000000000000000, 0.0000000000000000000 ) ) ;
#149 = DIRECTION ( 'NONE',  ( -0.0000000000000000000, -0.0000000000000000000, 1.000000000000000000 ) ) ;
#150 = EDGE_CURVE ( 'NONE', #197, #175, #51, .T. ) ;
#151 = CARTESIAN_POINT ( 'NONE',  ( 0.0000000000000000000, 25.15457501304964400, 1.567421169266322700 ) ) ;
#152 = CARTESIAN_POINT ( 'NONE',  ( 0.0000000000000000000, 0.0000000000000000000, -1.271278077542514800 ) ) ;
#153 = AXIS2_PLACEMENT_3D ( 'NONE', #27, #182, #81 ) ;
#154 = ORGANIZATION ( 'UNSPECIFIED', 'UNSPECIFIED', '' ) ;
#155 = ORIENTED_EDGE ( 'NONE', *, *, #178, .F. ) ;
#156 = CARTESIAN_POINT ( 'NONE',  ( 25.39999999999999900, 0.0000000000000000000, -1.271278077542514800 ) ) ;
#157 = EDGE_CURVE ( 'NONE', #236, #320, #130, .T. ) ;
#158 = APPLICATION_CONTEXT ( 'configuration controlled 3d designs of mechanical parts and assemblies' ) ;
#159 = CARTESIAN_POINT ( 'NONE',  ( 0.0000000000000000000, 0.0000000000000000000, -132.9000000000000100 ) ) ;
#160 = APPROVAL_PERSON_ORGANIZATION ( #171, #12, #133 ) ;
#161 = ORIENTED_EDGE ( 'NONE', *, *, #218, .F. ) ;
#162 = FACE_OUTER_BOUND ( 'NONE', #144, .T. ) ;
#163 = AXIS2_PLACEMENT_3D ( 'NONE', #7, #21, #220 ) ;
#164 = CARTESIAN_POINT ( 'NONE',  ( 0.0000000000000000000, 0.0000000000000000000, -1.271278077542514800 ) ) ;
#165 = ADVANCED_FACE ( 'NONE', ( #195 ), #323, .T. ) ;
#166 = SHAPE_DEFINITION_REPRESENTATION ( #233, #324 ) ;
#167 = CARTESIAN_POINT ( 'NONE',  ( 25.15457501304956300, 3.095574923599295300E-015, 1.567421169266308700 ) ) ;
#168 = DIRECTION ( 'NONE',  ( -0.0000000000000000000, -0.0000000000000000000, 1.000000000000000000 ) ) ;
#169 = COORDINATED_UNIVERSAL_TIME_OFFSET ( 5, 0, .BEHIND. ) ;
#170 = ADVANCED_FACE ( 'NONE', ( #125 ), #112, .T. ) ;
#171 = PERSON_AND_ORGANIZATION ( #308, #154 ) ;
#172 = DIRECTION ( 'NONE',  ( 0.0000000000000000000, 1.000000000000000000, 0.0000000000000000000 ) ) ;
#173 = EDGE_CURVE ( 'NONE', #175, #226, #110, .T. ) ;
#174 = PERSON_AND_ORGANIZATION ( #308, #154 ) ;
#175 = VERTEX_POINT ( 'NONE', #151 ) ;
#176 = CARTESIAN_POINT ( 'NONE',  ( 25.39999999999999900, 0.0000000000000000000, 1.271278077542431500 ) ) ;
#177 = CARTESIAN_POINT ( 'NONE',  ( 0.0000000000000000000, 0.0000000000000000000, 132.9000000000000100 ) ) ;
#178 = EDGE_CURVE ( 'NONE', #197, #3, #205, .T. ) ;
#179 = LINE ( 'NONE', #156, #282 ) ;
#180 = DIRECTION ( 'NONE',  ( -1.000000000000000000, 0.0000000000000000000, 0.0000000000000000000 ) ) ;
#181 =( GEOMETRIC_REPRESENTATION_CONTEXT ( 3 ) GLOBAL_UNCERTAINTY_ASSIGNED_CONTEXT ( ( #131 ) ) GLOBAL_UNIT_ASSIGNED_CONTEXT ( ( #223, #270, #357 ) ) REPRESENTATION_CONTEXT ( 'NONE', 'WORKASPACE' ) );
#182 = DIRECTION ( 'NONE',  ( 0.0000000000000000000, 0.0000000000000000000, -1.000000000000000000 ) ) ;
#183 = SECURITY_CLASSIFICATION ( '', '', #95 ) ;
#184 = VECTOR ( 'NONE', #4, 1000.000000000000000 ) ;
#185 = APPROVAL_PERSON_ORGANIZATION ( #257, #59, #19 ) ;
#186 = LINE ( 'NONE', #99, #47 ) ;
#187 = DIRECTION ( 'NONE',  ( 0.0000000000000000000, 0.0000000000000000000, 1.000000000000000000 ) ) ;
#188 = CC_DESIGN_APPROVAL ( #12, ( #183 ) ) ;
#189 = LINE ( 'NONE', #2, #184 ) ;
#190 = CARTESIAN_POINT ( 'NONE',  ( 25.39999999999999900, 0.0000000000000000000, 3.899999999999999900 ) ) ;
#191 = CONICAL_SURFACE ( 'NONE', #13, 25.15457501304956300, 0.6920200466037917900 ) ;
#192 = CALENDAR_DATE ( 2015, 17, 6 ) ;
#193 = CARTESIAN_POINT ( 'NONE',  ( 0.0000000000000000000, 0.0000000000000000000, 1.271278077542431500 ) ) ;
#194 = FACE_OUTER_BOUND ( 'NONE', #342, .T. ) ;
#195 = FACE_OUTER_BOUND ( 'NONE', #214, .T. ) ;
#196 = ORIENTED_EDGE ( 'NONE', *, *, #210, .T. ) ;
#197 = VERTEX_POINT ( 'NONE', #167 ) ;
#198 = DATE_AND_TIME ( #104, #137 ) ;
#199 = AXIS2_PLACEMENT_3D ( 'NONE', #103, #134, #57 ) ;
#200 = CARTESIAN_POINT ( 'NONE',  ( 0.0000000000000000000, 25.15457501304951300, -1.567421169266364200 ) ) ;
#201 = FACE_OUTER_BOUND ( 'NONE', #291, .T. ) ;
#202 = COORDINATED_UNIVERSAL_TIME_OFFSET ( 5, 0, .BEHIND. ) ;
#203 = CIRCLE ( 'NONE', #17, 136.8000000000000400 ) ;
#204 = CARTESIAN_POINT ( 'NONE',  ( 0.0000000000000000000, 0.0000000000000000000, -1.271278077542514800 ) ) ;
#205 = LINE ( 'NONE', #101, #346 ) ;
#206 = PERSON_AND_ORGANIZATION_ROLE ( 'creator' ) ;
#207 = CIRCLE ( 'NONE', #116, 25.39999999999999900 ) ;
#208 = CARTESIAN_POINT ( 'NONE',  ( -25.15457501304958000, 3.095574923599296000E-015, -1.567421169266364200 ) ) ;
#209 = ORIENTED_EDGE ( 'NONE', *, *, #343, .F. ) ;
#210 = EDGE_CURVE ( 'NONE', #3, #213, #261, .T. ) ;
#211 = APPROVAL_ROLE ( '' ) ;
#212 = CONICAL_SURFACE ( 'NONE', #80, 25.39999999999999900, 0.6920200466039160300 ) ;
#213 = VERTEX_POINT ( 'NONE', #278 ) ;
#214 = EDGE_LOOP ( 'NONE', ( #293, #55, #245, #97 ) ) ;
#215 = ORIENTED_EDGE ( 'NONE', *, *, #141, .T. ) ;
#216 = EDGE_LOOP ( 'NONE', ( #304, #127, #215, #196 ) ) ;
#217 = CARTESIAN_POINT ( 'NONE',  ( -25.39999999999999900, 3.110602869834276900E-015, 3.899999999999999900 ) ) ;
#218 = EDGE_CURVE ( 'NONE', #41, #305, #207, .T. ) ;
#219 = PERSON_AND_ORGANIZATION ( #308, #154 ) ;
#220 = DIRECTION ( 'NONE',  ( -1.224646799147353200E-016, -1.000000000000000000, 0.0000000000000000000 ) ) ;
#221 = CIRCLE ( 'NONE', #163, 136.8000000000000100 ) ;
#222 = AXIS2_PLACEMENT_3D ( 'NONE', #129, #254, #180 ) ;
#223 =( LENGTH_UNIT ( ) NAMED_UNIT ( * ) SI_UNIT ( .MILLI., .METRE. ) );
#224 = DIRECTION ( 'NONE',  ( -1.224646799147353200E-016, -1.000000000000000000, 0.0000000000000000000 ) ) ;
#225 = CIRCLE ( 'NONE', #256, 25.39999999999999900 ) ;
#226 = VERTEX_POINT ( 'NONE', #272 ) ;
#227 = CC_DESIGN_DATE_AND_TIME_ASSIGNMENT ( #198, #61, ( #183 ) ) ;
#228 = ADVANCED_FACE ( 'NONE', ( #341 ), #142, .T. ) ;
#229 = ORIENTED_EDGE ( 'NONE', *, *, #287, .T. ) ;
#230 = CARTESIAN_POINT ( 'NONE',  ( 0.0000000000000000000, 0.0000000000000000000, 132.9000000000000100 ) ) ;
#231 = CARTESIAN_POINT ( 'NONE',  ( 0.0000000000000000000, 0.0000000000000000000, 132.9000000000000100 ) ) ;
#232 = EDGE_CURVE ( 'NONE', #289, #366, #266, .T. ) ;
#233 = PRODUCT_DEFINITION_SHAPE ( 'NONE', 'NONE',  #68 ) ;
#234 = PERSON_AND_ORGANIZATION ( #308, #154 ) ;
#235 = FACE_OUTER_BOUND ( 'NONE', #252, .T. ) ;
#236 = VERTEX_POINT ( 'NONE', #242 ) ;
#237 = CARTESIAN_POINT ( 'NONE',  ( 0.0000000000000000000, 0.0000000000000000000, 1.567421169266308700 ) ) ;
#238 = CARTESIAN_POINT ( 'NONE',  ( 0.0000000000000000000, 8.376584106167896100E-015, 3.899999999999987000 ) ) ;
#239 = ORIENTED_EDGE ( 'NONE', *, *, #343, .T. ) ;
#240 = CC_DESIGN_APPROVAL ( #59, ( #68 ) ) ;
#241 = CARTESIAN_POINT ( 'NONE',  ( 0.0000000000000000000, 0.0000000000000000000, 1.567421169266336500 ) ) ;
#242 = CARTESIAN_POINT ( 'NONE',  ( -3.080546977364323500E-015, -25.15457501304964400, 1.567421169266322700 ) ) ;
#243 = SPHERICAL_SURFACE ( 'NONE', #271, 136.8000000000000100 ) ;
#244 = ORIENTED_EDGE ( 'NONE', *, *, #232, .F. ) ;
#245 = ORIENTED_EDGE ( 'NONE', *, *, #299, .T. ) ;
#246 = DIRECTION ( 'NONE',  ( 0.0000000000000000000, 1.000000000000000000, 0.0000000000000000000 ) ) ;
#247 = ORIENTED_EDGE ( 'NONE', *, *, #173, .T. ) ;
#248 = PRODUCT ( '4334-E0W', '4334-E0W', '', ( #93 ) ) ;
#249 = AXIS2_PLACEMENT_3D ( 'NONE', #14, #120, #301 ) ;
#250 = CALENDAR_DATE ( 2015, 17, 6 ) ;
#251 = PRODUCT_RELATED_PRODUCT_CATEGORY ( 'detail', '', ( #248 ) ) ;
#252 = EDGE_LOOP ( 'NONE', ( #155, #70, #115, #229, #111 ) ) ;
#253 = APPLICATION_PROTOCOL_DEFINITION ( 'international standard', 'config_control_design', 1994, #263 ) ;
#254 = DIRECTION ( 'NONE',  ( -0.0000000000000000000, -0.0000000000000000000, 1.000000000000000000 ) ) ;
#255 = DIRECTION ( 'NONE',  ( 0.0000000000000000000, 1.000000000000000000, 0.0000000000000000000 ) ) ;
#256 = AXIS2_PLACEMENT_3D ( 'NONE', #204, #53, #106 ) ;
#257 = PERSON_AND_ORGANIZATION ( #308, #154 ) ;
#258 = ORIENTED_EDGE ( 'NONE', *, *, #102, .F. ) ;
#259 = CARTESIAN_POINT ( 'NONE',  ( 0.0000000000000000000, 0.0000000000000000000, -1.567421169266364200 ) ) ;
#260 = DIRECTION ( 'NONE',  ( 1.000000000000000000, 0.0000000000000000000, 0.0000000000000000000 ) ) ;
#261 = CIRCLE ( 'NONE', #24, 25.39999999999999900 ) ;
#262 = VERTEX_POINT ( 'NONE', #60 ) ;
#263 = APPLICATION_CONTEXT ( 'configuration controlled 3d designs of mechanical parts and assemblies' ) ;
#264 = CARTESIAN_POINT ( 'NONE',  ( 0.0000000000000000000, 0.0000000000000000000, -132.9000000000000100 ) ) ;
#265 = DIRECTION ( 'NONE',  ( -1.000000000000000000, 0.0000000000000000000, 0.0000000000000000000 ) ) ;
#266 = CIRCLE ( 'NONE', #62, 25.15457501304958000 ) ;
#267 = ADVANCED_FACE ( 'NONE', ( #235 ), #273, .T. ) ;
#268 = LOCAL_TIME ( 16, 47, 48.00000000000000000, #118 ) ;
#269 = AXIS2_PLACEMENT_3D ( 'NONE', #230, #347, #26 ) ;
#270 =( NAMED_UNIT ( * ) PLANE_ANGLE_UNIT ( ) SI_UNIT ( $, .RADIAN. ) );
#271 = AXIS2_PLACEMENT_3D ( 'NONE', #264, #66, #172 ) ;
#272 = CARTESIAN_POINT ( 'NONE',  ( -25.15457501304956300, 0.0000000000000000000, 1.567421169266308700 ) ) ;
#273 = CONICAL_SURFACE ( 'NONE', #153, 25.15457501304956300, 0.6920200466037917900 ) ;
#274 = ORIENTED_EDGE ( 'NONE', *, *, #29, .F. ) ;
#275 = ORIENTED_EDGE ( 'NONE', *, *, #107, .F. ) ;
#276 = DIRECTION ( 'NONE',  ( 0.0000000000000000000, 0.0000000000000000000, -1.000000000000000000 ) ) ;
#277 = APPROVAL_DATE_TIME ( #311, #89 ) ;
#278 = CARTESIAN_POINT ( 'NONE',  ( -25.39999999999999900, 3.110602869834276900E-015, 1.271278077542431500 ) ) ;
#279 = EDGE_CURVE ( 'NONE', #236, #197, #122, .T. ) ;
#280 = ORIENTED_EDGE ( 'NONE', *, *, #173, .F. ) ;
#281 = CARTESIAN_POINT ( 'NONE',  ( 25.39999999999999900, 0.0000000000000000000, -1.271278077542514800 ) ) ;
#282 = VECTOR ( 'NONE', #40, 1000.000000000000200 ) ;
#283 = ORIENTED_EDGE ( 'NONE', *, *, #58, .F. ) ;
#284 = CIRCLE ( 'NONE', #340, 25.15457501304958000 ) ;
#285 = DIRECTION ( 'NONE',  ( 1.000000000000000000, 0.0000000000000000000, 0.0000000000000000000 ) ) ;
#286 = APPROVAL_STATUS ( 'not_yet_approved' ) ;
#287 = EDGE_CURVE ( 'NONE', #226, #213, #189, .T. ) ;
#288 = DIRECTION ( 'NONE',  ( -0.0000000000000000000, -0.0000000000000000000, 1.000000000000000000 ) ) ;
#289 = VERTEX_POINT ( 'NONE', #208 ) ;
#290 = DIRECTION ( 'NONE',  ( -1.000000000000000000, 1.224646799147353200E-016, 0.0000000000000000000 ) ) ;
#291 = EDGE_LOOP ( 'NONE', ( #247, #307, #355, #56 ) ) ;
#292 = ADVANCED_FACE ( 'NONE', ( #194 ), #138, .T. ) ;
#293 = ORIENTED_EDGE ( 'NONE', *, *, #29, .T. ) ;
#294 = DIRECTION ( 'NONE',  ( 0.0000000000000000000, 0.0000000000000000000, -1.000000000000000000 ) ) ;
#295 = LOCAL_TIME ( 16, 47, 48.00000000000000000, #333 ) ;
#296 = ORIENTED_EDGE ( 'NONE', *, *, #42, .T. ) ;
#297 = CIRCLE ( 'NONE', #222, 25.15457501304956300 ) ;
#298 = CIRCLE ( 'NONE', #11, 25.15457501304958000 ) ;
#299 = EDGE_CURVE ( 'NONE', #213, #3, #312, .T. ) ;
#300 = MANIFOLD_SOLID_BREP ( '4334-001-1-solid1', #321 ) ;
#301 = DIRECTION ( 'NONE',  ( 1.000000000000000000, 0.0000000000000000000, 0.0000000000000000000 ) ) ;
#302 = CARTESIAN_POINT ( 'NONE',  ( 0.0000000000000000000, 0.0000000000000000000, 1.567421169266308700 ) ) ;
#303 = DATE_TIME_ROLE ( 'creation_date' ) ;
#304 = ORIENTED_EDGE ( 'NONE', *, *, #23, .F. ) ;
#305 = VERTEX_POINT ( 'NONE', #281 ) ;
#306 = DIRECTION ( 'NONE',  ( 1.000000000000000000, 0.0000000000000000000, 0.0000000000000000000 ) ) ;
#307 = ORIENTED_EDGE ( 'NONE', *, *, #358, .T. ) ;
#308 = PERSON ( 'UNSPECIFIED', 'UNSPECIFIED', 'UNSPECIFIED', ('UNSPECIFIED'), ('UNSPECIFIED'), ('UNSPECIFIED') ) ;
#309 = ORIENTED_EDGE ( 'NONE', *, *, #42, .F. ) ;
#310 = AXIS2_PLACEMENT_3D ( 'NONE', #135, #290, #224 ) ;
#311 = DATE_AND_TIME ( #250, #295 ) ;
#312 = CIRCLE ( 'NONE', #199, 25.39999999999999900 ) ;
#313 = CC_DESIGN_PERSON_AND_ORGANIZATION_ASSIGNMENT ( #174, #109, ( #183 ) ) ;
#314 = FACE_OUTER_BOUND ( 'NONE', #113, .T. ) ;
#315 = DIRECTION ( 'NONE',  ( 1.000000000000000000, 0.0000000000000000000, 0.0000000000000000000 ) ) ;
#316 = CC_DESIGN_SECURITY_CLASSIFICATION ( #183, ( #326 ) ) ;
#317 = DIRECTION ( 'NONE',  ( -0.0000000000000000000, -0.0000000000000000000, 1.000000000000000000 ) ) ;
#318 = DIRECTION ( 'NONE',  ( 0.0000000000000000000, 0.0000000000000000000, -1.000000000000000000 ) ) ;
#319 = APPROVAL_DATE_TIME ( #337, #59 ) ;
#320 = VERTEX_POINT ( 'NONE', #238 ) ;
#321 = CLOSED_SHELL ( 'NONE', ( #6, #123, #292, #165, #147, #170, #228, #28, #49, #267 ) ) ;
#322 = CC_DESIGN_PERSON_AND_ORGANIZATION_ASSIGNMENT ( #114, #206, ( #68 ) ) ;
#323 = CYLINDRICAL_SURFACE ( 'NONE', #249, 25.39999999999999900 ) ;
#324 = ADVANCED_BREP_SHAPE_REPRESENTATION ( '4334-E0W', ( #300, #332 ), #181 ) ;
#325 = CIRCLE ( 'NONE', #136, 25.15457501304958000 ) ;
#326 = PRODUCT_DEFINITION_FORMATION_WITH_SPECIFIED_SOURCE ( 'ANY', '', #248, .NOT_KNOWN. ) ;
#327 = EDGE_LOOP ( 'NONE', ( #36, #5, #354, #10 ) ) ;
#328 = CC_DESIGN_PERSON_AND_ORGANIZATION_ASSIGNMENT ( #219, #344, ( #326 ) ) ;
#329 = EDGE_LOOP ( 'NONE', ( #258, #82, #275, #339, #161 ) ) ;
#330 = AXIS2_PLACEMENT_3D ( 'NONE', #34, #288, #260 ) ;
#331 = DIRECTION ( 'NONE',  ( 0.0000000000000000000, 0.0000000000000000000, -1.000000000000000000 ) ) ;
#332 = AXIS2_PLACEMENT_3D ( 'NONE', #148, #187, #46 ) ;
#333 = COORDINATED_UNIVERSAL_TIME_OFFSET ( 5, 0, .BEHIND. ) ;
#334 = DIRECTION ( 'NONE',  ( -1.000000000000000000, 0.0000000000000000000, 0.0000000000000000000 ) ) ;
#335 = FACE_OUTER_BOUND ( 'NONE', #86, .T. ) ;
#336 = CARTESIAN_POINT ( 'NONE',  ( 25.15457501304958000, 0.0000000000000000000, -1.567421169266364200 ) ) ;
#337 = DATE_AND_TIME ( #25, #105 ) ;
#338 = CIRCLE ( 'NONE', #98, 136.8000000000000100 ) ;
#339 = ORIENTED_EDGE ( 'NONE', *, *, #146, .T. ) ;
#340 = AXIS2_PLACEMENT_3D ( 'NONE', #259, #294, #285 ) ;
#341 = FACE_OUTER_BOUND ( 'NONE', #216, .T. ) ;
#342 = EDGE_LOOP ( 'NONE', ( #209, #296, #117, #349 ) ) ;
#343 = EDGE_CURVE ( 'NONE', #90, #366, #338, .T. ) ;
#344 = PERSON_AND_ORGANIZATION_ROLE ( 'design_supplier' ) ;
#345 = DIRECTION ( 'NONE',  ( -0.0000000000000000000, -0.0000000000000000000, 1.000000000000000000 ) ) ;
#346 = VECTOR ( 'NONE', #30, 1000.000000000000000 ) ;
#347 = DIRECTION ( 'NONE',  ( -1.000000000000000000, 0.0000000000000000000, 0.0000000000000000000 ) ) ;
#348 = DIRECTION ( 'NONE',  ( -0.0000000000000000000, -0.0000000000000000000, 1.000000000000000000 ) ) ;
#349 = ORIENTED_EDGE ( 'NONE', *, *, #232, .T. ) ;
#350 = DIRECTION ( 'NONE',  ( -0.0000000000000000000, -0.0000000000000000000, 1.000000000000000000 ) ) ;
#351 = EDGE_CURVE ( 'NONE', #262, #289, #284, .T. ) ;
#352 = DIRECTION ( 'NONE',  ( -1.000000000000000000, 0.0000000000000000000, 0.0000000000000000000 ) ) ;
#353 = DESIGN_CONTEXT ( 'detailed design', #158, 'design' ) ;
#354 = ORIENTED_EDGE ( 'NONE', *, *, #150, .T. ) ;
#355 = ORIENTED_EDGE ( 'NONE', *, *, #157, .T. ) ;
#356 = VECTOR ( 'NONE', #345, 1000.000000000000000 ) ;
#357 =( NAMED_UNIT ( * ) SI_UNIT ( $, .STERADIAN. ) SOLID_ANGLE_UNIT ( ) );
#358 = EDGE_CURVE ( 'NONE', #226, #236, #297, .T. ) ;
#359 = PERSON_AND_ORGANIZATION_ROLE ( 'creator' ) ;
#360 = APPROVAL_STATUS ( 'not_yet_approved' ) ;
#361 = ORIENTED_EDGE ( 'NONE', *, *, #178, .T. ) ;
#362 = APPLICATION_PROTOCOL_DEFINITION ( 'international standard', 'config_control_design', 1994, #158 ) ;
#363 = PERSON_AND_ORGANIZATION ( #308, #154 ) ;
#364 = ORIENTED_EDGE ( 'NONE', *, *, #102, .T. ) ;
#365 = AXIS2_PLACEMENT_3D ( 'NONE', #177, #334, #255 ) ;
#366 = VERTEX_POINT ( 'NONE', #200 ) ;
#367 = VECTOR ( 'NONE', #35, 1000.000000000000000 ) ;
ENDSEC;
END-ISO-10303-21;
