ISO-10303-21;
HEADER;
FILE_DESCRIPTION (( 'STEP AP203' ),
    '1' );
FILE_NAME ('25010-E0W.STEP',
    '2012-09-28T16:26:48',
    ( 'Admin' ),
    ( 'Thorlabs, Inc.' ),
    'SwSTEP 2.0',
    'SolidWorks 2011',
    '' );
FILE_SCHEMA (( 'CONFIG_CONTROL_DESIGN' ));
ENDSEC;

DATA;
#1 = ORIENTED_EDGE ( 'NONE', *, *, #2, .F. ) ;
#2 = EDGE_CURVE ( 'NONE', #69, #61, #174, .T. ) ;
#3 = EDGE_CURVE ( 'NONE', #61, #55, #107, .T. ) ;
#4 = ORIENTED_EDGE ( 'NONE', *, *, #16, .T. ) ;
#5 = EDGE_CURVE ( 'NONE', #55, #6, #154, .T. ) ;
#6 = VERTEX_POINT ( 'NONE', #105 ) ;
#7 = ADVANCED_FACE ( 'NONE', ( #104 ), #169, .T. ) ;
#8 = ORIENTED_EDGE ( 'NONE', *, *, #14, .F. ) ;
#9 = ADVANCED_FACE ( 'NONE', ( #162 ), #144, .T. ) ;
#10 = VERTEX_POINT ( 'NONE', #94 ) ;
#11 = ORIENTED_EDGE ( 'NONE', *, *, #5, .F. ) ;
#12 = EDGE_CURVE ( 'NONE', #74, #10, #171, .T. ) ;
#13 = EDGE_LOOP ( 'NONE', ( #19, #70, #51 ) ) ;
#14 = EDGE_CURVE ( 'NONE', #6, #10, #146, .T. ) ;
#15 = ORIENTED_EDGE ( 'NONE', *, *, #41, .T. ) ;
#16 = EDGE_CURVE ( 'NONE', #23, #6, #159, .T. ) ;
#17 = ADVANCED_FACE ( 'NONE', ( #100 ), #137, .T. ) ;
#18 = EDGE_LOOP ( 'NONE', ( #22, #15, #27 ) ) ;
#19 = ORIENTED_EDGE ( 'NONE', *, *, #73, .F. ) ;
#20 = EDGE_CURVE ( 'NONE', #23, #26, #140, .T. ) ;
#21 = MECHANICAL_CONTEXT ( 'NONE', #25, 'mechanical' ) ;
#22 = ORIENTED_EDGE ( 'NONE', *, *, #20, .T. ) ;
#23 = VERTEX_POINT ( 'NONE', #120 ) ;
#24 = APPLICATION_PROTOCOL_DEFINITION ( 'international standard', 'config_control_design', 1994, #25 ) ;
#25 = APPLICATION_CONTEXT ( 'configuration controlled 3d designs of mechanical parts and assemblies' ) ;
#26 = VERTEX_POINT ( 'NONE', #119 ) ;
#27 = ORIENTED_EDGE ( 'NONE', *, *, #35, .F. ) ;
#28 = ORIENTED_EDGE ( 'NONE', *, *, #30, .F. ) ;
#29 = ORIENTED_EDGE ( 'NONE', *, *, #14, .T. ) ;
#30 = EDGE_CURVE ( 'NONE', #26, #10, #133, .T. ) ;
#31 = ADVANCED_FACE ( 'NONE', ( #114 ), #136, .T. ) ;
#32 = ORIENTED_EDGE ( 'NONE', *, *, #48, .F. ) ;
#33 = ORIENTED_EDGE ( 'NONE', *, *, #16, .F. ) ;
#34 = ORIENTED_EDGE ( 'NONE', *, *, #30, .T. ) ;
#35 = EDGE_CURVE ( 'NONE', #23, #39, #110, .T. ) ;
#36 = ORIENTED_EDGE ( 'NONE', *, *, #48, .T. ) ;
#37 = EDGE_LOOP ( 'NONE', ( #33, #32, #34, #53 ) ) ;
#38 = EDGE_LOOP ( 'NONE', ( #47, #44, #148, #160 ) ) ;
#39 = VERTEX_POINT ( 'NONE', #92 ) ;
#40 = ADVANCED_FACE ( 'NONE', ( #142 ), #111, .T. ) ;
#41 = EDGE_CURVE ( 'NONE', #26, #39, #112, .T. ) ;
#42 = EDGE_CURVE ( 'NONE', #10, #6, #249, .T. ) ;
#43 = ORIENTED_EDGE ( 'NONE', *, *, #172, .F. ) ;
#44 = ORIENTED_EDGE ( 'NONE', *, *, #172, .T. ) ;
#45 = EDGE_CURVE ( 'NONE', #79, #61, #227, .T. ) ;
#46 = ORIENTED_EDGE ( 'NONE', *, *, #45, .T. ) ;
#47 = ORIENTED_EDGE ( 'NONE', *, *, #12, .F. ) ;
#48 = EDGE_CURVE ( 'NONE', #26, #23, #214, .T. ) ;
#49 = ORIENTED_EDGE ( 'NONE', *, *, #35, .T. ) ;
#50 = ORIENTED_EDGE ( 'NONE', *, *, #72, .F. ) ;
#51 = ORIENTED_EDGE ( 'NONE', *, *, #45, .F. ) ;
#52 = EDGE_LOOP ( 'NONE', ( #147, #36, #49 ) ) ;
#53 = ORIENTED_EDGE ( 'NONE', *, *, #42, .T. ) ;
#54 = EDGE_LOOP ( 'NONE', ( #50, #46, #138, #43 ) ) ;
#55 = VERTEX_POINT ( 'NONE', #189 ) ;
#56 = EDGE_CURVE ( 'NONE', #55, #74, #190, .T. ) ;
#57 = MANIFOLD_SOLID_BREP ( '25010-001-1-solid1', #58 ) ;
#58 = CLOSED_SHELL ( 'NONE', ( #67, #82, #75, #7, #17, #103, #167, #31, #40, #9 ) ) ;
#59 = EDGE_LOOP ( 'NONE', ( #62, #4, #29, #28 ) ) ;
#60 = ORIENTED_EDGE ( 'NONE', *, *, #71, .F. ) ;
#61 = VERTEX_POINT ( 'NONE', #259 ) ;
#62 = ORIENTED_EDGE ( 'NONE', *, *, #20, .F. ) ;
#63 = ORIENTED_EDGE ( 'NONE', *, *, #12, .T. ) ;
#64 = ORIENTED_EDGE ( 'NONE', *, *, #3, .F. ) ;
#65 = ORIENTED_EDGE ( 'NONE', *, *, #56, .T. ) ;
#66 = ORIENTED_EDGE ( 'NONE', *, *, #56, .F. ) ;
#67 = ADVANCED_FACE ( 'NONE', ( #228 ), #242, .T. ) ;
#68 = EDGE_LOOP ( 'NONE', ( #65, #63, #8, #11 ) ) ;
#69 = VERTEX_POINT ( 'NONE', #219 ) ;
#70 = ORIENTED_EDGE ( 'NONE', *, *, #2, .T. ) ;
#71 = EDGE_CURVE ( 'NONE', #61, #79, #245, .T. ) ;
#72 = EDGE_CURVE ( 'NONE', #79, #74, #203, .T. ) ;
#73 = EDGE_CURVE ( 'NONE', #69, #79, #183, .T. ) ;
#74 = VERTEX_POINT ( 'NONE', #264 ) ;
#75 = ADVANCED_FACE ( 'NONE', ( #223 ), #265, .T. ) ;
#76 = EDGE_LOOP ( 'NONE', ( #1, #80, #60 ) ) ;
#77 = ORIENTED_EDGE ( 'NONE', *, *, #71, .T. ) ;
#78 = ORIENTED_EDGE ( 'NONE', *, *, #72, .T. ) ;
#79 = VERTEX_POINT ( 'NONE', #182 ) ;
#80 = ORIENTED_EDGE ( 'NONE', *, *, #73, .T. ) ;
#81 = EDGE_LOOP ( 'NONE', ( #77, #78, #66, #64 ) ) ;
#82 = ADVANCED_FACE ( 'NONE', ( #192 ), #212, .T. ) ;
#83 = CARTESIAN_POINT ( 'NONE',  ( -15.59991495543672000, -2.480112469560591400E-015, 0.0000000000000000000 ) ) ;
#84 = AXIS2_PLACEMENT_3D ( 'NONE', #83, #157, #156 ) ;
#85 = APPROVAL_STATUS ( 'not_yet_approved' ) ;
#86 = PERSON_AND_ORGANIZATION ( #93, #195 ) ;
#87 = AXIS2_PLACEMENT_3D ( 'NONE', #151, #145, #134 ) ;
#88 = DIRECTION ( 'NONE',  ( -1.000000000000000000, 0.0000000000000000000, 0.0000000000000000000 ) ) ;
#89 = DIRECTION ( 'NONE',  ( 0.0000000000000000000, 0.0000000000000000000, -1.000000000000000000 ) ) ;
#90 = CARTESIAN_POINT ( 'NONE',  ( 15.59991495543672000, 0.05486866416719694800, 0.0000000000000000000 ) ) ;
#91 = AXIS2_PLACEMENT_3D ( 'NONE', #90, #89, #88 ) ;
#92 = CARTESIAN_POINT ( 'NONE',  ( -2.100000000000000100, 0.0000000000000000000, 0.0000000000000000000 ) ) ;
#93 = PERSON ( 'UNSPECIFIED', 'UNSPECIFIED', 'UNSPECIFIED', ('UNSPECIFIED'), ('UNSPECIFIED'), ('UNSPECIFIED') ) ;
#94 = CARTESIAN_POINT ( 'NONE',  ( -0.8133979906573102200, 6.350000000000000500, 0.0000000000000000000 ) ) ;
#95 = DIRECTION ( 'NONE',  ( -1.000000000000000000, 0.0000000000000000000, 0.0000000000000000000 ) ) ;
#96 = DIRECTION ( 'NONE',  ( 0.0000000000000000000, 0.0000000000000000000, -1.000000000000000000 ) ) ;
#97 = CARTESIAN_POINT ( 'NONE',  ( -15.59991495543672000, 0.05486866416718201600, 0.0000000000000000000 ) ) ;
#98 = DIRECTION ( 'NONE',  ( 1.878145495644180800E-016, -1.000000000000000000, 0.0000000000000000000 ) ) ;
#99 = AXIS2_PLACEMENT_3D ( 'NONE', #155, #108, #98 ) ;
#100 = FACE_OUTER_BOUND ( 'NONE', #18, .T. ) ;
#101 = DIRECTION ( 'NONE',  ( -1.000000000000000000, -1.836970198721029900E-016, -0.0000000000000000000 ) ) ;
#102 = DIRECTION ( 'NONE',  ( -0.7071067811865626700, -0.7071067811865324700, 0.0000000000000000000 ) ) ;
#103 = ADVANCED_FACE ( 'NONE', ( #181 ), #208, .T. ) ;
#104 = FACE_OUTER_BOUND ( 'NONE', #59, .T. ) ;
#105 = CARTESIAN_POINT ( 'NONE',  ( -0.8133979906573077800, -6.350000000000000500, 7.776507174585693100E-016 ) ) ;
#106 = CARTESIAN_POINT ( 'NONE',  ( -2.099999999999999200, -6.349999999999999600, 0.0000000000000000000 ) ) ;
#107 = LINE ( 'NONE', #161, #166 ) ;
#108 = DIRECTION ( 'NONE',  ( -1.000000000000000000, -1.836970198721029900E-016, -0.0000000000000000000 ) ) ;
#109 = DIRECTION ( 'NONE',  ( -1.000000000000000000, -1.836970198721029900E-016, -0.0000000000000000000 ) ) ;
#110 = CIRCLE ( 'NONE', #91, 17.69999999999999900 ) ;
#111 = CONICAL_SURFACE ( 'NONE', #87, 6.208578643762694000, 0.7853981633974268500 ) ;
#112 = CIRCLE ( 'NONE', #130, 17.69999999999999900 ) ;
#113 = CARTESIAN_POINT ( 'NONE',  ( -2.100000000000000100, 0.0000000000000000000, 0.0000000000000000000 ) ) ;
#114 = FACE_OUTER_BOUND ( 'NONE', #38, .T. ) ;
#115 = CARTESIAN_POINT ( 'NONE',  ( -0.8133979906573090000, 2.363449548777120200E-016, 0.0000000000000000000 ) ) ;
#116 = DIRECTION ( 'NONE',  ( 1.920926605209706200E-016, -1.000000000000000000, 0.0000000000000000000 ) ) ;
#117 = DIRECTION ( 'NONE',  ( -1.000000000000000000, -1.836970198721029900E-016, -0.0000000000000000000 ) ) ;
#118 = CARTESIAN_POINT ( 'NONE',  ( -0.9548193468946182300, 2.103662731906472400E-016, 0.0000000000000000000 ) ) ;
#119 = CARTESIAN_POINT ( 'NONE',  ( -0.9548193468946186700, 6.208578643762692200, 7.603315963338596400E-016 ) ) ;
#120 = CARTESIAN_POINT ( 'NONE',  ( -0.9548193468946175600, -6.208578643762692200, 0.0000000000000000000 ) ) ;
#121 = DIRECTION ( 'NONE',  ( 0.7071067811865463500, 0.7071067811865487900, 0.0000000000000000000 ) ) ;
#122 = VECTOR ( 'NONE', #121, 999.9999999999998900 ) ;
#123 = CARTESIAN_POINT ( 'NONE',  ( -0.8133979906573102200, 6.350000000000000500, 0.0000000000000000000 ) ) ;
#124 = AXIS2_PLACEMENT_3D ( 'NONE', #118, #117, #116 ) ;
#125 = VECTOR ( 'NONE', #141, 1000.000000000000000 ) ;
#126 = CARTESIAN_POINT ( 'NONE',  ( -0.8133979906573077800, -6.350000000000000500, 7.776507174585693100E-016 ) ) ;
#127 = CARTESIAN_POINT ( 'NONE',  ( 15.59991495543672000, 3.252606517456513300E-015, 0.0000000000000000000 ) ) ;
#128 = AXIS2_PLACEMENT_3D ( 'NONE', #127, #101, #139 ) ;
#129 = DIRECTION ( 'NONE',  ( 0.0000000000000000000, -1.000000000000000000, -1.224646799147353500E-016 ) ) ;
#130 = AXIS2_PLACEMENT_3D ( 'NONE', #132, #152, #129 ) ;
#131 = PRODUCT_DEFINITION ( 'UNKNOWN', '', #268, #236 ) ;
#132 = CARTESIAN_POINT ( 'NONE',  ( 15.59991495543672000, -0.05486866416719044700, -6.719473394584484300E-018 ) ) ;
#133 = LINE ( 'NONE', #123, #122 ) ;
#134 = DIRECTION ( 'NONE',  ( 1.920926605209705400E-016, -1.000000000000000000, 0.0000000000000000000 ) ) ;
#135 = CARTESIAN_POINT ( 'NONE',  ( -2.100000000000001400, 6.349999999999999600, 7.776507174585692200E-016 ) ) ;
#136 = CYLINDRICAL_SURFACE ( 'NONE', #158, 6.349999999999999600 ) ;
#137 = TOROIDAL_SURFACE ( 'NONE', #128, -0.05486866416719370100, 17.69999999999999900 ) ;
#138 = ORIENTED_EDGE ( 'NONE', *, *, #3, .T. ) ;
#139 = DIRECTION ( 'NONE',  ( 1.836970198721029900E-016, -1.000000000000000000, 0.0000000000000000000 ) ) ;
#140 = CIRCLE ( 'NONE', #124, 6.208578643762691300 ) ;
#141 = DIRECTION ( 'NONE',  ( 0.7071067811865465700, -0.7071067811865484600, 8.659560562354946400E-017 ) ) ;
#142 = FACE_OUTER_BOUND ( 'NONE', #54, .T. ) ;
#143 = PRODUCT ( '25010-E0W', '25010-E0W', '', ( #21 ) ) ;
#144 = TOROIDAL_SURFACE ( 'NONE', #84, -0.05486866416718450000, 17.69999999999999900 ) ;
#145 = DIRECTION ( 'NONE',  ( -1.000000000000000000, -1.836970198721029900E-016, -0.0000000000000000000 ) ) ;
#146 = CIRCLE ( 'NONE', #99, 6.350000000000000500 ) ;
#147 = ORIENTED_EDGE ( 'NONE', *, *, #41, .F. ) ;
#148 = ORIENTED_EDGE ( 'NONE', *, *, #5, .T. ) ;
#149 = DIRECTION ( 'NONE',  ( 2.048885995248197400E-016, -1.000000000000000000, 0.0000000000000000000 ) ) ;
#150 = DIRECTION ( 'NONE',  ( -1.000000000000000000, -1.836970198721029900E-016, -0.0000000000000000000 ) ) ;
#151 = CARTESIAN_POINT ( 'NONE',  ( 0.9548193468946227800, 5.611612102721862100E-016, 0.0000000000000000000 ) ) ;
#152 = DIRECTION ( 'NONE',  ( 2.249639673992786700E-032, -1.224646799147353200E-016, 1.000000000000000000 ) ) ;
#153 = VECTOR ( 'NONE', #168, 1000.000000000000000 ) ;
#154 = LINE ( 'NONE', #106, #153 ) ;
#155 = CARTESIAN_POINT ( 'NONE',  ( -0.8133979906573090000, 2.363449548777120200E-016, 0.0000000000000000000 ) ) ;
#156 = DIRECTION ( 'NONE',  ( 1.836970198721029900E-016, -1.000000000000000000, 0.0000000000000000000 ) ) ;
#157 = DIRECTION ( 'NONE',  ( -1.000000000000000000, -1.836970198721029900E-016, -0.0000000000000000000 ) ) ;
#158 = AXIS2_PLACEMENT_3D ( 'NONE', #113, #150, #149 ) ;
#159 = LINE ( 'NONE', #126, #125 ) ;
#160 = ORIENTED_EDGE ( 'NONE', *, *, #42, .F. ) ;
#161 = CARTESIAN_POINT ( 'NONE',  ( 0.9548193468946240000, -6.208578643762693100, 0.0000000000000000000 ) ) ;
#162 = FACE_OUTER_BOUND ( 'NONE', #13, .T. ) ;
#163 = DIRECTION ( 'NONE',  ( -1.878145495644180800E-016, 1.000000000000000000, 0.0000000000000000000 ) ) ;
#164 = DIRECTION ( 'NONE',  ( 1.000000000000000000, 1.836970198721029900E-016, 0.0000000000000000000 ) ) ;
#165 = AXIS2_PLACEMENT_3D ( 'NONE', #115, #164, #163 ) ;
#166 = VECTOR ( 'NONE', #102, 999.9999999999998900 ) ;
#167 = ADVANCED_FACE ( 'NONE', ( #200 ), #206, .T. ) ;
#168 = DIRECTION ( 'NONE',  ( -1.000000000000000000, -1.836970198721029900E-016, -0.0000000000000000000 ) ) ;
#169 = CONICAL_SURFACE ( 'NONE', #165, 6.350000000000000500, 0.7853981633974498300 ) ;
#170 = VECTOR ( 'NONE', #109, 1000.000000000000000 ) ;
#171 = LINE ( 'NONE', #135, #170 ) ;
#172 = EDGE_CURVE ( 'NONE', #74, #55, #221, .T. ) ;
#173 = AXIS2_PLACEMENT_3D ( 'NONE', #97, #96, #95 ) ;
#174 = CIRCLE ( 'NONE', #173, 17.69999999999999900 ) ;
#175 = CARTESIAN_POINT ( 'NONE',  ( -0.8133979906573090000, 2.363449548777120200E-016, 0.0000000000000000000 ) ) ;
#176 = CARTESIAN_POINT ( 'NONE',  ( -15.59991495543672000, -2.480112469560591400E-015, 0.0000000000000000000 ) ) ;
#177 = AXIS2_PLACEMENT_3D ( 'NONE', #213, #226, #210 ) ;
#178 = DIRECTION ( 'NONE',  ( 1.836970198721029900E-016, -1.000000000000000000, 0.0000000000000000000 ) ) ;
#179 = DIRECTION ( 'NONE',  ( -1.000000000000000000, -1.836970198721029900E-016, -0.0000000000000000000 ) ) ;
#180 = AXIS2_PLACEMENT_3D ( 'NONE', #191, #185, #188 ) ;
#181 = FACE_OUTER_BOUND ( 'NONE', #52, .T. ) ;
#182 = CARTESIAN_POINT ( 'NONE',  ( 0.9548193468946216700, 6.208578643762694900, 7.689911568962146300E-016 ) ) ;
#183 = CIRCLE ( 'NONE', #204, 17.69999999999999900 ) ;
#184 = DIRECTION ( 'NONE',  ( 1.920926605209705400E-016, -1.000000000000000000, 0.0000000000000000000 ) ) ;
#185 = DIRECTION ( 'NONE',  ( -1.000000000000000000, -1.836970198721029900E-016, -0.0000000000000000000 ) ) ;
#186 = DIRECTION ( 'NONE',  ( -1.000000000000000000, -1.836970198721029900E-016, -0.0000000000000000000 ) ) ;
#187 = DIRECTION ( 'NONE',  ( 0.0000000000000000000, -1.000000000000000000, -1.224646799147353500E-016 ) ) ;
#188 = DIRECTION ( 'NONE',  ( 2.048885995248197400E-016, -1.000000000000000000, 0.0000000000000000000 ) ) ;
#189 = CARTESIAN_POINT ( 'NONE',  ( 0.8133979906573125500, -6.349999999999998800, 0.0000000000000000000 ) ) ;
#190 = CIRCLE ( 'NONE', #261, 6.349999999999999600 ) ;
#191 = CARTESIAN_POINT ( 'NONE',  ( -2.100000000000000100, 0.0000000000000000000, 0.0000000000000000000 ) ) ;
#192 = FACE_OUTER_BOUND ( 'NONE', #81, .T. ) ;
#193 = DIRECTION ( 'NONE',  ( -0.7071067811865627800, 0.7071067811865322500, 8.659560562354746700E-017 ) ) ;
#194 = AXIS2_PLACEMENT_3D ( 'NONE', #175, #218, #248 ) ;
#195 = ORGANIZATION ( 'UNSPECIFIED', 'UNSPECIFIED', '' ) ;
#196 = DIRECTION ( 'NONE',  ( 1.000000000000000000, 0.0000000000000000000, 0.0000000000000000000 ) ) ;
#197 = DIRECTION ( 'NONE',  ( 0.0000000000000000000, 0.0000000000000000000, 1.000000000000000000 ) ) ;
#198 = CARTESIAN_POINT ( 'NONE',  ( 15.59991495543672000, 3.252606517456513300E-015, 0.0000000000000000000 ) ) ;
#199 = AXIS2_PLACEMENT_3D ( 'NONE', #205, #186, #262 ) ;
#200 = FACE_OUTER_BOUND ( 'NONE', #37, .T. ) ;
#201 = VECTOR ( 'NONE', #193, 1000.000000000000000 ) ;
#202 = CARTESIAN_POINT ( 'NONE',  ( 0.9548193468946216700, 6.208578643762694900, 7.603315963338599400E-016 ) ) ;
#203 = LINE ( 'NONE', #202, #201 ) ;
#204 = AXIS2_PLACEMENT_3D ( 'NONE', #222, #251, #187 ) ;
#205 = CARTESIAN_POINT ( 'NONE',  ( 0.9548193468946227800, 5.611612102721862100E-016, 0.0000000000000000000 ) ) ;
#206 = CONICAL_SURFACE ( 'NONE', #233, 6.350000000000000500, 0.7853981633974498300 ) ;
#207 = AXIS2_PLACEMENT_3D ( 'NONE', #198, #235, #234 ) ;
#208 = TOROIDAL_SURFACE ( 'NONE', #207, -0.05486866416719370100, 17.69999999999999900 ) ;
#209 = CARTESIAN_POINT ( 'NONE',  ( -0.8133979906573090000, 2.363449548777120200E-016, 0.0000000000000000000 ) ) ;
#210 = DIRECTION ( 'NONE',  ( 1.920926605209705400E-016, -1.000000000000000000, 0.0000000000000000000 ) ) ;
#211 = DIRECTION ( 'NONE',  ( -1.000000000000000000, -1.836970198721029900E-016, -0.0000000000000000000 ) ) ;
#212 = CONICAL_SURFACE ( 'NONE', #199, 6.208578643762694000, 0.7853981633974268500 ) ;
#213 = CARTESIAN_POINT ( 'NONE',  ( 0.9548193468946227800, 5.611612102721862100E-016, 0.0000000000000000000 ) ) ;
#214 = CIRCLE ( 'NONE', #252, 6.208578643762691300 ) ;
#215 = DIRECTION ( 'NONE',  ( 1.920926605209706200E-016, -1.000000000000000000, 0.0000000000000000000 ) ) ;
#216 =( GEOMETRIC_REPRESENTATION_CONTEXT ( 3 ) GLOBAL_UNCERTAINTY_ASSIGNED_CONTEXT ( ( #217 ) ) GLOBAL_UNIT_ASSIGNED_CONTEXT ( ( #253, #247, #246 ) ) REPRESENTATION_CONTEXT ( 'NONE', 'WORKASPACE' ) );
#217 = UNCERTAINTY_MEASURE_WITH_UNIT (LENGTH_MEASURE( 1.000000000000000100E-005 ), #253, 'distance_accuracy_value', 'NONE');
#218 = DIRECTION ( 'NONE',  ( -1.000000000000000000, -1.836970198721029900E-016, -0.0000000000000000000 ) ) ;
#219 = CARTESIAN_POINT ( 'NONE',  ( 2.100000000000000100, 7.715274834628326400E-016, 0.0000000000000000000 ) ) ;
#220 = DIRECTION ( 'NONE',  ( 1.878145495644181100E-016, -1.000000000000000000, 0.0000000000000000000 ) ) ;
#221 = CIRCLE ( 'NONE', #230, 6.349999999999999600 ) ;
#222 = CARTESIAN_POINT ( 'NONE',  ( -15.59991495543672000, -0.05486866416718697700, -6.719473394583357200E-018 ) ) ;
#223 = FACE_OUTER_BOUND ( 'NONE', #68, .T. ) ;
#224 = AXIS2_PLACEMENT_3D ( 'NONE', #254, #197, #196 ) ;
#225 = ADVANCED_BREP_SHAPE_REPRESENTATION ( '25010-E0W', ( #57, #224 ), #216 ) ;
#226 = DIRECTION ( 'NONE',  ( -1.000000000000000000, -1.836970198721029900E-016, -0.0000000000000000000 ) ) ;
#227 = CIRCLE ( 'NONE', #177, 6.208578643762694000 ) ;
#228 = FACE_OUTER_BOUND ( 'NONE', #76, .T. ) ;
#229 = CARTESIAN_POINT ( 'NONE',  ( 0.8133979906573113300, 5.351825285851211600E-016, 0.0000000000000000000 ) ) ;
#230 = AXIS2_PLACEMENT_3D ( 'NONE', #229, #256, #255 ) ;
#231 = DIRECTION ( 'NONE',  ( -1.878145495644180800E-016, 1.000000000000000000, 0.0000000000000000000 ) ) ;
#232 = DIRECTION ( 'NONE',  ( 1.000000000000000000, 1.836970198721029900E-016, 0.0000000000000000000 ) ) ;
#233 = AXIS2_PLACEMENT_3D ( 'NONE', #209, #232, #231 ) ;
#234 = DIRECTION ( 'NONE',  ( 1.836970198721029900E-016, -1.000000000000000000, 0.0000000000000000000 ) ) ;
#235 = DIRECTION ( 'NONE',  ( -1.000000000000000000, -1.836970198721029900E-016, -0.0000000000000000000 ) ) ;
#236 = DESIGN_CONTEXT ( 'detailed design', #238, 'design' ) ;
#237 = APPLICATION_PROTOCOL_DEFINITION ( 'international standard', 'config_control_design', 1994, #238 ) ;
#238 = APPLICATION_CONTEXT ( 'configuration controlled 3d designs of mechanical parts and assemblies' ) ;
#239 = CC_DESIGN_PERSON_AND_ORGANIZATION_ASSIGNMENT ( #241, #240, ( #143 ) ) ;
#240 = PERSON_AND_ORGANIZATION_ROLE ( 'design_owner' ) ;
#241 = PERSON_AND_ORGANIZATION ( #93, #195 ) ;
#242 = TOROIDAL_SURFACE ( 'NONE', #260, -0.05486866416718450000, 17.69999999999999900 ) ;
#243 = DIRECTION ( 'NONE',  ( -1.000000000000000000, -1.836970198721029900E-016, -0.0000000000000000000 ) ) ;
#244 = AXIS2_PLACEMENT_3D ( 'NONE', #263, #243, #184 ) ;
#245 = CIRCLE ( 'NONE', #244, 6.208578643762694000 ) ;
#246 =( NAMED_UNIT ( * ) SI_UNIT ( $, .STERADIAN. ) SOLID_ANGLE_UNIT ( ) );
#247 =( NAMED_UNIT ( * ) PLANE_ANGLE_UNIT ( ) SI_UNIT ( $, .RADIAN. ) );
#248 = DIRECTION ( 'NONE',  ( 1.878145495644180800E-016, -1.000000000000000000, 0.0000000000000000000 ) ) ;
#249 = CIRCLE ( 'NONE', #194, 6.350000000000000500 ) ;
#250 = CARTESIAN_POINT ( 'NONE',  ( -0.9548193468946182300, 2.103662731906472400E-016, 0.0000000000000000000 ) ) ;
#251 = DIRECTION ( 'NONE',  ( 2.249639673992786700E-032, -1.224646799147353200E-016, 1.000000000000000000 ) ) ;
#252 = AXIS2_PLACEMENT_3D ( 'NONE', #250, #211, #215 ) ;
#253 =( LENGTH_UNIT ( ) NAMED_UNIT ( * ) SI_UNIT ( .MILLI., .METRE. ) );
#254 = CARTESIAN_POINT ( 'NONE',  ( 0.0000000000000000000, 0.0000000000000000000, 0.0000000000000000000 ) ) ;
#255 = DIRECTION ( 'NONE',  ( 1.878145495644181100E-016, -1.000000000000000000, 0.0000000000000000000 ) ) ;
#256 = DIRECTION ( 'NONE',  ( -1.000000000000000000, -1.836970198721029900E-016, -0.0000000000000000000 ) ) ;
#257 = DIRECTION ( 'NONE',  ( -1.000000000000000000, -1.836970198721029900E-016, -0.0000000000000000000 ) ) ;
#258 = CARTESIAN_POINT ( 'NONE',  ( 0.8133979906573113300, 5.351825285851211600E-016, 0.0000000000000000000 ) ) ;
#259 = CARTESIAN_POINT ( 'NONE',  ( 0.9548193468946240000, -6.208578643762693100, 0.0000000000000000000 ) ) ;
#260 = AXIS2_PLACEMENT_3D ( 'NONE', #176, #179, #178 ) ;
#261 = AXIS2_PLACEMENT_3D ( 'NONE', #258, #257, #220 ) ;
#262 = DIRECTION ( 'NONE',  ( 1.920926605209705400E-016, -1.000000000000000000, 0.0000000000000000000 ) ) ;
#263 = CARTESIAN_POINT ( 'NONE',  ( 0.9548193468946227800, 5.611612102721862100E-016, 0.0000000000000000000 ) ) ;
#264 = CARTESIAN_POINT ( 'NONE',  ( 0.8133979906573102200, 6.350000000000001400, 7.776507174585694100E-016 ) ) ;
#265 = CYLINDRICAL_SURFACE ( 'NONE', #180, 6.349999999999999600 ) ;
#266 = PERSON_AND_ORGANIZATION_ROLE ( 'design_supplier' ) ;
#267 = PERSON_AND_ORGANIZATION ( #93, #195 ) ;
#268 = PRODUCT_DEFINITION_FORMATION_WITH_SPECIFIED_SOURCE ( 'ANY', '', #143, .NOT_KNOWN. ) ;
#269 = CC_DESIGN_DATE_AND_TIME_ASSIGNMENT ( #283, #282, ( #131 ) ) ;
#270 = CC_DESIGN_PERSON_AND_ORGANIZATION_ASSIGNMENT ( #271, #266, ( #268 ) ) ;
#271 = PERSON_AND_ORGANIZATION ( #93, #195 ) ;
#272 = CC_DESIGN_PERSON_AND_ORGANIZATION_ASSIGNMENT ( #323, #279, ( #268 ) ) ;
#273 = PERSON_AND_ORGANIZATION ( #93, #195 ) ;
#274 = APPROVAL_STATUS ( 'not_yet_approved' ) ;
#275 = CC_DESIGN_APPROVAL ( #309, ( #131 ) ) ;
#276 = LOCAL_TIME ( 12, 26, 48.00000000000000000, #318 ) ;
#277 = COORDINATED_UNIVERSAL_TIME_OFFSET ( 5, 0, .BEHIND. ) ;
#278 = APPROVAL_PERSON_ORGANIZATION ( #327, #326, #292 ) ;
#279 = PERSON_AND_ORGANIZATION_ROLE ( 'creator' ) ;
#280 = PRODUCT_RELATED_PRODUCT_CATEGORY ( 'detail', '', ( #143 ) ) ;
#281 = CALENDAR_DATE ( 2012, 28, 9 ) ;
#282 = DATE_TIME_ROLE ( 'creation_date' ) ;
#283 = DATE_AND_TIME ( #322, #314 ) ;
#284 = DATE_AND_TIME ( #285, #286 ) ;
#285 = CALENDAR_DATE ( 2012, 28, 9 ) ;
#286 = LOCAL_TIME ( 12, 26, 48.00000000000000000, #287 ) ;
#287 = COORDINATED_UNIVERSAL_TIME_OFFSET ( 5, 0, .BEHIND. ) ;
#288 = COORDINATED_UNIVERSAL_TIME_OFFSET ( 5, 0, .BEHIND. ) ;
#289 = PERSON_AND_ORGANIZATION_ROLE ( 'classification_officer' ) ;
#290 = PERSON_AND_ORGANIZATION ( #93, #195 ) ;
#291 = SECURITY_CLASSIFICATION ( '', '', #304 ) ;
#292 = APPROVAL_ROLE ( '' ) ;
#293 = APPROVAL_PERSON_ORGANIZATION ( #86, #309, #313 ) ;
#294 = CC_DESIGN_SECURITY_CLASSIFICATION ( #291, ( #268 ) ) ;
#295 = CC_DESIGN_PERSON_AND_ORGANIZATION_ASSIGNMENT ( #273, #321, ( #131 ) ) ;
#296 = DATE_AND_TIME ( #297, #315 ) ;
#297 = CALENDAR_DATE ( 2012, 28, 9 ) ;
#298 = SHAPE_DEFINITION_REPRESENTATION ( #299, #225 ) ;
#299 = PRODUCT_DEFINITION_SHAPE ( 'NONE', 'NONE',  #131 ) ;
#300 = CC_DESIGN_DATE_AND_TIME_ASSIGNMENT ( #302, #301, ( #291 ) ) ;
#301 = DATE_TIME_ROLE ( 'classification_date' ) ;
#302 = DATE_AND_TIME ( #303, #310 ) ;
#303 = CALENDAR_DATE ( 2012, 28, 9 ) ;
#304 = SECURITY_CLASSIFICATION_LEVEL ( 'unclassified' ) ;
#305 = APPROVAL_PERSON_ORGANIZATION ( #267, #307, #306 ) ;
#306 = APPROVAL_ROLE ( '' ) ;
#307 = APPROVAL ( #308, 'UNSPECIFIED' ) ;
#308 = APPROVAL_STATUS ( 'not_yet_approved' ) ;
#309 = APPROVAL ( #85, 'UNSPECIFIED' ) ;
#310 = LOCAL_TIME ( 12, 26, 48.00000000000000000, #288 ) ;
#311 = CC_DESIGN_PERSON_AND_ORGANIZATION_ASSIGNMENT ( #290, #289, ( #291 ) ) ;
#312 = DATE_AND_TIME ( #281, #276 ) ;
#313 = APPROVAL_ROLE ( '' ) ;
#314 = LOCAL_TIME ( 12, 26, 48.00000000000000000, #319 ) ;
#315 = LOCAL_TIME ( 12, 26, 48.00000000000000000, #277 ) ;
#316 = CC_DESIGN_APPROVAL ( #307, ( #291 ) ) ;
#317 = APPROVAL_DATE_TIME ( #284, #307 ) ;
#318 = COORDINATED_UNIVERSAL_TIME_OFFSET ( 5, 0, .BEHIND. ) ;
#319 = COORDINATED_UNIVERSAL_TIME_OFFSET ( 5, 0, .BEHIND. ) ;
#320 = APPROVAL_DATE_TIME ( #312, #309 ) ;
#321 = PERSON_AND_ORGANIZATION_ROLE ( 'creator' ) ;
#322 = CALENDAR_DATE ( 2012, 28, 9 ) ;
#323 = PERSON_AND_ORGANIZATION ( #93, #195 ) ;
#324 = CC_DESIGN_APPROVAL ( #326, ( #268 ) ) ;
#325 = APPROVAL_DATE_TIME ( #296, #326 ) ;
#326 = APPROVAL ( #274, 'UNSPECIFIED' ) ;
#327 = PERSON_AND_ORGANIZATION ( #93, #195 ) ;
ENDSEC;
END-ISO-10303-21;
