ISO-10303-21;
HEADER;
FILE_DESCRIPTION (( 'STEP AP203' ),
    '1' );
FILE_NAME ('Web Model 39392_39406.step',
    '2018-10-05T20:44:51',
    ( '' ),
    ( '' ),
    'SwSTEP 2.0',
    'SolidWorks 2016',
    '' );
FILE_SCHEMA (( 'CONFIG_CONTROL_DESIGN' ));
ENDSEC;

DATA;
#1 = DIRECTION ( 'NONE',  ( -1.000000000000000000, 0.0000000000000000000, 0.0000000000000000000 ) ) ;
#2 = DATE_TIME_ROLE ( 'creation_date' ) ;
#3 = PRODUCT_DEFINITION ( 'UNKNOWN', '', #76, #86 ) ;
#4 = VERTEX_POINT ( 'NONE', #104 ) ;
#5 = EDGE_CURVE ( 'NONE', #88, #87, #100, .T. ) ;
#6 = UNCERTAINTY_MEASURE_WITH_UNIT (LENGTH_MEASURE( 1.000000000000000100E-005 ), #29, 'distance_accuracy_value', 'NONE');
#7 = ORIENTED_EDGE ( 'NONE', *, *, #52, .T. ) ;
#8 = AXIS2_PLACEMENT_3D ( 'NONE', #106, #124, #134 ) ;
#9 = CLOSED_SHELL ( 'NONE', ( #81, #95, #82, #154 ) ) ;
#10 = APPROVAL_PERSON_ORGANIZATION ( #107, #102, #127 ) ;
#11 = PRODUCT ( 'Web Model 39392_39406', 'Web Model 39392_39406', '', ( #27 ) ) ;
#12 = CIRCLE ( 'NONE', #69, 6.349999999999999600 ) ;
#13 = CARTESIAN_POINT ( 'NONE',  ( 0.0000000000000000000, 0.0000000000000000000, -1.000000000000000000 ) ) ;
#14 = PLANE ( 'NONE',  #105 ) ;
#15 = PERSON_AND_ORGANIZATION_ROLE ( 'creator' ) ;
#16 = CALENDAR_DATE ( 2018, 5, 10 ) ;
#17 = APPLICATION_PROTOCOL_DEFINITION ( 'international standard', 'config_control_design', 1994, #75 ) ;
#18 = ORIENTED_EDGE ( 'NONE', *, *, #21, .F. ) ;
#19 = APPROVAL ( #64, 'UNSPECIFIED' ) ;
#20 = PERSON_AND_ORGANIZATION ( #158, #78 ) ;
#21 = EDGE_CURVE ( 'NONE', #37, #88, #167, .T. ) ;
#22 = CALENDAR_DATE ( 2018, 5, 10 ) ;
#23 = PERSON_AND_ORGANIZATION ( #158, #78 ) ;
#24 = CARTESIAN_POINT ( 'NONE',  ( -6.349999999999999600, 0.0000000000000000000, -1.000000000000000000 ) ) ;
#25 = AXIS2_PLACEMENT_3D ( 'NONE', #136, #92, #38 ) ;
#26 = ORIENTED_EDGE ( 'NONE', *, *, #30, .T. ) ;
#27 = MECHANICAL_CONTEXT ( 'NONE', #166, 'mechanical' ) ;
#28 = CALENDAR_DATE ( 2018, 5, 10 ) ;
#29 =( LENGTH_UNIT ( ) NAMED_UNIT ( * ) SI_UNIT ( .MILLI., .METRE. ) );
#30 = EDGE_CURVE ( 'NONE', #37, #4, #144, .T. ) ;
#31 = PERSON_AND_ORGANIZATION ( #158, #78 ) ;
#32 = ORIENTED_EDGE ( 'NONE', *, *, #170, .T. ) ;
#33 = ORIENTED_EDGE ( 'NONE', *, *, #52, .F. ) ;
#34 = PRODUCT_RELATED_PRODUCT_CATEGORY ( 'detail', '', ( #11 ) ) ;
#35 = ORIENTED_EDGE ( 'NONE', *, *, #36, .F. ) ;
#36 = EDGE_CURVE ( 'NONE', #88, #37, #111, .T. ) ;
#37 = VERTEX_POINT ( 'NONE', #148 ) ;
#38 = DIRECTION ( 'NONE',  ( 1.000000000000000000, 0.0000000000000000000, 0.0000000000000000000 ) ) ;
#39 = DIRECTION ( 'NONE',  ( 0.0000000000000000000, 0.0000000000000000000, 1.000000000000000000 ) ) ;
#40 = CARTESIAN_POINT ( 'NONE',  ( -6.349999999999999600, 0.0000000000000000000, 1.000000000000000000 ) ) ;
#41 = APPLICATION_PROTOCOL_DEFINITION ( 'international standard', 'config_control_design', 1994, #166 ) ;
#42 = MANIFOLD_SOLID_BREP ( 'Boss-Extrude1', #9 ) ;
#43 = CIRCLE ( 'NONE', #68, 6.349999999999999600 ) ;
#44 =( NAMED_UNIT ( * ) PLANE_ANGLE_UNIT ( ) SI_UNIT ( $, .RADIAN. ) );
#45 = PERSON_AND_ORGANIZATION ( #158, #78 ) ;
#46 = EDGE_LOOP ( 'NONE', ( #55, #130 ) ) ;
#47 = DIRECTION ( 'NONE',  ( 1.000000000000000000, 0.0000000000000000000, 0.0000000000000000000 ) ) ;
#48 = DATE_AND_TIME ( #99, #65 ) ;
#49 = APPROVAL_DATE_TIME ( #165, #19 ) ;
#50 = APPROVAL_ROLE ( '' ) ;
#51 = APPROVAL_STATUS ( 'not_yet_approved' ) ;
#52 = EDGE_CURVE ( 'NONE', #87, #4, #12, .T. ) ;
#53 = DATE_TIME_ROLE ( 'classification_date' ) ;
#54 = APPROVAL_ROLE ( '' ) ;
#55 = ORIENTED_EDGE ( 'NONE', *, *, #36, .T. ) ;
#56 = DATE_AND_TIME ( #16, #94 ) ;
#57 = LOCAL_TIME ( 16, 44, 51.00000000000000000, #84 ) ;
#58 = CC_DESIGN_PERSON_AND_ORGANIZATION_ASSIGNMENT ( #61, #96, ( #3 ) ) ;
#59 = COORDINATED_UNIVERSAL_TIME_OFFSET ( 5, 0, .BEHIND. ) ;
#60 = DIRECTION ( 'NONE',  ( -0.0000000000000000000, -0.0000000000000000000, -1.000000000000000000 ) ) ;
#61 = PERSON_AND_ORGANIZATION ( #158, #78 ) ;
#62 = LOCAL_TIME ( 16, 44, 51.00000000000000000, #73 ) ;
#63 = CYLINDRICAL_SURFACE ( 'NONE', #119, 6.349999999999999600 ) ;
#64 = APPROVAL_STATUS ( 'not_yet_approved' ) ;
#65 = LOCAL_TIME ( 16, 44, 51.00000000000000000, #145 ) ;
#66 = CC_DESIGN_PERSON_AND_ORGANIZATION_ASSIGNMENT ( #116, #141, ( #115 ) ) ;
#67 = APPROVAL_DATE_TIME ( #164, #102 ) ;
#68 = AXIS2_PLACEMENT_3D ( 'NONE', #77, #108, #139 ) ;
#69 = AXIS2_PLACEMENT_3D ( 'NONE', #70, #173, #47 ) ;
#70 = CARTESIAN_POINT ( 'NONE',  ( 0.0000000000000000000, 0.0000000000000000000, -1.000000000000000000 ) ) ;
#71 = DIRECTION ( 'NONE',  ( 1.000000000000000000, 0.0000000000000000000, -0.0000000000000000000 ) ) ;
#72 = CC_DESIGN_SECURITY_CLASSIFICATION ( #115, ( #76 ) ) ;
#73 = COORDINATED_UNIVERSAL_TIME_OFFSET ( 5, 0, .BEHIND. ) ;
#74 = CARTESIAN_POINT ( 'NONE',  ( -6.349999999999999600, 0.0000000000000000000, 1.000000000000000000 ) ) ;
#75 = APPLICATION_CONTEXT ( 'configuration controlled 3d designs of mechanical parts and assemblies' ) ;
#76 = PRODUCT_DEFINITION_FORMATION_WITH_SPECIFIED_SOURCE ( 'ANY', '', #11, .NOT_KNOWN. ) ;
#77 = CARTESIAN_POINT ( 'NONE',  ( 0.0000000000000000000, 0.0000000000000000000, -1.000000000000000000 ) ) ;
#78 = ORGANIZATION ( 'UNSPECIFIED', 'UNSPECIFIED', '' ) ;
#79 = CC_DESIGN_APPROVAL ( #19, ( #76 ) ) ;
#80 = PERSON_AND_ORGANIZATION_ROLE ( 'design_owner' ) ;
#81 = ADVANCED_FACE ( 'NONE', ( #83 ), #153, .T. ) ;
#82 = ADVANCED_FACE ( 'NONE', ( #171 ), #14, .T. ) ;
#83 = FACE_OUTER_BOUND ( 'NONE', #142, .T. ) ;
#84 = COORDINATED_UNIVERSAL_TIME_OFFSET ( 5, 0, .BEHIND. ) ;
#85 = CC_DESIGN_PERSON_AND_ORGANIZATION_ASSIGNMENT ( #45, #109, ( #76 ) ) ;
#86 = DESIGN_CONTEXT ( 'detailed design', #75, 'design' ) ;
#87 = VERTEX_POINT ( 'NONE', #24 ) ;
#88 = VERTEX_POINT ( 'NONE', #74 ) ;
#89 = DIRECTION ( 'NONE',  ( -0.0000000000000000000, -0.0000000000000000000, -1.000000000000000000 ) ) ;
#90 = DIRECTION ( 'NONE',  ( -0.0000000000000000000, -0.0000000000000000000, -1.000000000000000000 ) ) ;
#91 = DIRECTION ( 'NONE',  ( -1.000000000000000000, 0.0000000000000000000, 0.0000000000000000000 ) ) ;
#92 = DIRECTION ( 'NONE',  ( 0.0000000000000000000, 0.0000000000000000000, 1.000000000000000000 ) ) ;
#93 = AXIS2_PLACEMENT_3D ( 'NONE', #13, #159, #71 ) ;
#94 = LOCAL_TIME ( 16, 44, 51.00000000000000000, #59 ) ;
#95 = ADVANCED_FACE ( 'NONE', ( #135 ), #63, .T. ) ;
#96 = PERSON_AND_ORGANIZATION_ROLE ( 'creator' ) ;
#97 = APPROVAL_PERSON_ORGANIZATION ( #31, #132, #54 ) ;
#98 = CC_DESIGN_PERSON_AND_ORGANIZATION_ASSIGNMENT ( #20, #15, ( #76 ) ) ;
#99 = CALENDAR_DATE ( 2018, 5, 10 ) ;
#100 = LINE ( 'NONE', #40, #146 ) ;
#101 = FACE_OUTER_BOUND ( 'NONE', #117, .T. ) ;
#102 = APPROVAL ( #51, 'UNSPECIFIED' ) ;
#103 = CARTESIAN_POINT ( 'NONE',  ( 0.0000000000000000000, 0.0000000000000000000, 1.000000000000000000 ) ) ;
#104 = CARTESIAN_POINT ( 'NONE',  ( 6.349999999999999600, 7.776507174585692200E-016, -1.000000000000000000 ) ) ;
#105 = AXIS2_PLACEMENT_3D ( 'NONE', #103, #121, #161 ) ;
#106 = CARTESIAN_POINT ( 'NONE',  ( 0.0000000000000000000, 0.0000000000000000000, 1.000000000000000000 ) ) ;
#107 = PERSON_AND_ORGANIZATION ( #158, #78 ) ;
#108 = DIRECTION ( 'NONE',  ( 0.0000000000000000000, 0.0000000000000000000, 1.000000000000000000 ) ) ;
#109 = PERSON_AND_ORGANIZATION_ROLE ( 'design_supplier' ) ;
#110 = ORIENTED_EDGE ( 'NONE', *, *, #5, .T. ) ;
#111 = CIRCLE ( 'NONE', #25, 6.349999999999999600 ) ;
#112 = AXIS2_PLACEMENT_3D ( 'NONE', #174, #90, #1 ) ;
#113 = CC_DESIGN_DATE_AND_TIME_ASSIGNMENT ( #48, #53, ( #115 ) ) ;
#114 = ORIENTED_EDGE ( 'NONE', *, *, #5, .F. ) ;
#115 = SECURITY_CLASSIFICATION ( '', '', #150 ) ;
#116 = PERSON_AND_ORGANIZATION ( #158, #78 ) ;
#117 = EDGE_LOOP ( 'NONE', ( #33, #151 ) ) ;
#118 = DATE_AND_TIME ( #28, #57 ) ;
#119 = AXIS2_PLACEMENT_3D ( 'NONE', #163, #89, #91 ) ;
#120 = CARTESIAN_POINT ( 'NONE',  ( 0.0000000000000000000, 0.0000000000000000000, 0.0000000000000000000 ) ) ;
#121 = DIRECTION ( 'NONE',  ( 0.0000000000000000000, 0.0000000000000000000, 1.000000000000000000 ) ) ;
#122 = ORIENTED_EDGE ( 'NONE', *, *, #30, .F. ) ;
#123 = PLANE ( 'NONE',  #93 ) ;
#124 = DIRECTION ( 'NONE',  ( 0.0000000000000000000, 0.0000000000000000000, 1.000000000000000000 ) ) ;
#125 = DIRECTION ( 'NONE',  ( 1.000000000000000000, 0.0000000000000000000, 0.0000000000000000000 ) ) ;
#126 =( NAMED_UNIT ( * ) SI_UNIT ( $, .STERADIAN. ) SOLID_ANGLE_UNIT ( ) );
#127 = APPROVAL_ROLE ( '' ) ;
#128 = COORDINATED_UNIVERSAL_TIME_OFFSET ( 5, 0, .BEHIND. ) ;
#129 = CC_DESIGN_DATE_AND_TIME_ASSIGNMENT ( #118, #2, ( #3 ) ) ;
#130 = ORIENTED_EDGE ( 'NONE', *, *, #21, .T. ) ;
#131 = CC_DESIGN_APPROVAL ( #132, ( #3 ) ) ;
#132 = APPROVAL ( #138, 'UNSPECIFIED' ) ;
#133 = LOCAL_TIME ( 16, 44, 51.00000000000000000, #128 ) ;
#134 = DIRECTION ( 'NONE',  ( 1.000000000000000000, 0.0000000000000000000, 0.0000000000000000000 ) ) ;
#135 = FACE_OUTER_BOUND ( 'NONE', #157, .T. ) ;
#136 = CARTESIAN_POINT ( 'NONE',  ( 0.0000000000000000000, 0.0000000000000000000, 1.000000000000000000 ) ) ;
#137 = SHAPE_DEFINITION_REPRESENTATION ( #152, #143 ) ;
#138 = APPROVAL_STATUS ( 'not_yet_approved' ) ;
#139 = DIRECTION ( 'NONE',  ( 1.000000000000000000, 0.0000000000000000000, 0.0000000000000000000 ) ) ;
#140 = APPROVAL_DATE_TIME ( #56, #132 ) ;
#141 = PERSON_AND_ORGANIZATION_ROLE ( 'classification_officer' ) ;
#142 = EDGE_LOOP ( 'NONE', ( #18, #26, #32, #114 ) ) ;
#143 = ADVANCED_BREP_SHAPE_REPRESENTATION ( 'Web Model 39392_39406', ( #42, #149 ), #156 ) ;
#144 = LINE ( 'NONE', #147, #175 ) ;
#145 = COORDINATED_UNIVERSAL_TIME_OFFSET ( 5, 0, .BEHIND. ) ;
#146 = VECTOR ( 'NONE', #162, 1000.000000000000000 ) ;
#147 = CARTESIAN_POINT ( 'NONE',  ( 6.349999999999999600, 7.776507174585692200E-016, 1.000000000000000000 ) ) ;
#148 = CARTESIAN_POINT ( 'NONE',  ( 6.349999999999999600, 7.776507174585692200E-016, 1.000000000000000000 ) ) ;
#149 = AXIS2_PLACEMENT_3D ( 'NONE', #120, #39, #125 ) ;
#150 = SECURITY_CLASSIFICATION_LEVEL ( 'unclassified' ) ;
#151 = ORIENTED_EDGE ( 'NONE', *, *, #170, .F. ) ;
#152 = PRODUCT_DEFINITION_SHAPE ( 'NONE', 'NONE',  #3 ) ;
#153 = CYLINDRICAL_SURFACE ( 'NONE', #112, 6.349999999999999600 ) ;
#154 = ADVANCED_FACE ( 'NONE', ( #101 ), #123, .F. ) ;
#155 = CALENDAR_DATE ( 2018, 5, 10 ) ;
#156 =( GEOMETRIC_REPRESENTATION_CONTEXT ( 3 ) GLOBAL_UNCERTAINTY_ASSIGNED_CONTEXT ( ( #6 ) ) GLOBAL_UNIT_ASSIGNED_CONTEXT ( ( #29, #44, #126 ) ) REPRESENTATION_CONTEXT ( 'NONE', 'WORKASPACE' ) );
#157 = EDGE_LOOP ( 'NONE', ( #122, #35, #110, #7 ) ) ;
#158 = PERSON ( 'UNSPECIFIED', 'UNSPECIFIED', 'UNSPECIFIED', ('UNSPECIFIED'), ('UNSPECIFIED'), ('UNSPECIFIED') ) ;
#159 = DIRECTION ( 'NONE',  ( 0.0000000000000000000, 0.0000000000000000000, 1.000000000000000000 ) ) ;
#160 = PERSON_AND_ORGANIZATION ( #158, #78 ) ;
#161 = DIRECTION ( 'NONE',  ( 1.000000000000000000, 0.0000000000000000000, -0.0000000000000000000 ) ) ;
#162 = DIRECTION ( 'NONE',  ( -0.0000000000000000000, -0.0000000000000000000, -1.000000000000000000 ) ) ;
#163 = CARTESIAN_POINT ( 'NONE',  ( 0.0000000000000000000, 0.0000000000000000000, 1.000000000000000000 ) ) ;
#164 = DATE_AND_TIME ( #155, #62 ) ;
#165 = DATE_AND_TIME ( #22, #133 ) ;
#166 = APPLICATION_CONTEXT ( 'configuration controlled 3d designs of mechanical parts and assemblies' ) ;
#167 = CIRCLE ( 'NONE', #8, 6.349999999999999600 ) ;
#168 = APPROVAL_PERSON_ORGANIZATION ( #23, #19, #50 ) ;
#169 = CC_DESIGN_APPROVAL ( #102, ( #115 ) ) ;
#170 = EDGE_CURVE ( 'NONE', #4, #87, #43, .T. ) ;
#171 = FACE_OUTER_BOUND ( 'NONE', #46, .T. ) ;
#172 = CC_DESIGN_PERSON_AND_ORGANIZATION_ASSIGNMENT ( #160, #80, ( #11 ) ) ;
#173 = DIRECTION ( 'NONE',  ( 0.0000000000000000000, 0.0000000000000000000, 1.000000000000000000 ) ) ;
#174 = CARTESIAN_POINT ( 'NONE',  ( 0.0000000000000000000, 0.0000000000000000000, 1.000000000000000000 ) ) ;
#175 = VECTOR ( 'NONE', #60, 1000.000000000000000 ) ;
ENDSEC;
END-ISO-10303-21;
