ISO-10303-21;
HEADER;
FILE_DESCRIPTION (( 'STEP AP203' ),
    '1' );
FILE_NAME ('Web Model 32269_46692.step',
    '2020-01-31T18:52:41',
    ( '' ),
    ( '' ),
    'SwSTEP 2.0',
    'SolidWorks 2018',
    '' );
FILE_SCHEMA (( 'CONFIG_CONTROL_DESIGN' ));
ENDSEC;

DATA;
#1 = PRODUCT_RELATED_PRODUCT_CATEGORY ( 'detail', '', ( #25 ) ) ;
#2 = VERTEX_POINT ( 'NONE', #79 ) ;
#3 = AXIS2_PLACEMENT_3D ( 'NONE', #99, #119, #205 ) ;
#4 = CARTESIAN_POINT ( 'NONE',  ( 9.999999999999998224, 13.49999999999999822, 0.5000000000000000000 ) ) ;
#5 = PLANE ( 'NONE',  #187 ) ;
#6 = EDGE_CURVE ( 'NONE', #2, #174, #218, .T. ) ;
#7 = APPLICATION_PROTOCOL_DEFINITION ( 'international standard', 'config_control_design', 1994, #192 ) ;
#8 = PERSON_AND_ORGANIZATION ( #57, #235 ) ;
#9 = DATE_TIME_ROLE ( 'creation_date' ) ;
#10 = CARTESIAN_POINT ( 'NONE',  ( -10.00000000000000178, 13.49999999999999822, -0.5000000000000000000 ) ) ;
#11 = CC_DESIGN_APPROVAL ( #225, ( #219 ) ) ;
#12 = DATE_AND_TIME ( #59, #207 ) ;
#13 = LINE ( 'NONE', #121, #189 ) ;
#14 = ORIENTED_EDGE ( 'NONE', *, *, #176, .T. ) ;
#15 = PERSON_AND_ORGANIZATION ( #57, #235 ) ;
#16 = APPROVAL_DATE_TIME ( #146, #237 ) ;
#17 = ORIENTED_EDGE ( 'NONE', *, *, #6, .T. ) ;
#18 = CC_DESIGN_SECURITY_CLASSIFICATION ( #219, ( #179 ) ) ;
#19 = VECTOR ( 'NONE', #98, 1000.000000000000000 ) ;
#20 = DIRECTION ( 'NONE',  ( 1.284980352575412699E-16, -1.000000000000000000, 0.0000000000000000000 ) ) ;
#21 = DIRECTION ( 'NONE',  ( -1.284980352575412946E-16, 1.000000000000000000, 0.0000000000000000000 ) ) ;
#22 = ORIENTED_EDGE ( 'NONE', *, *, #107, .F. ) ;
#23 = DIRECTION ( 'NONE',  ( -0.0000000000000000000, 0.0000000000000000000, 1.000000000000000000 ) ) ;
#24 = CC_DESIGN_PERSON_AND_ORGANIZATION_ASSIGNMENT ( #8, #212, ( #179 ) ) ;
#25 = PRODUCT ( 'Web Model 32269_46692', 'Web Model 32269_46692', '', ( #43 ) ) ;
#26 = PERSON_AND_ORGANIZATION_ROLE ( 'classification_officer' ) ;
#27 = LINE ( 'NONE', #36, #135 ) ;
#28 = SECURITY_CLASSIFICATION_LEVEL ( 'unclassified' ) ;
#29 = COORDINATED_UNIVERSAL_TIME_OFFSET ( 5, 0, .BEHIND. ) ;
#30 = ORIENTED_EDGE ( 'NONE', *, *, #86, .F. ) ;
#31 = VECTOR ( 'NONE', #170, 1000.000000000000000 ) ;
#32 = FACE_OUTER_BOUND ( 'NONE', #56, .T. ) ;
#33 = ADVANCED_FACE ( 'NONE', ( #64 ), #5, .F. ) ;
#34 = CARTESIAN_POINT ( 'NONE',  ( 9.999999999999998224, 13.49999999999999822, 0.5000000000000000000 ) ) ;
#35 = ORIENTED_EDGE ( 'NONE', *, *, #180, .T. ) ;
#36 = CARTESIAN_POINT ( 'NONE',  ( -9.999999999999998224, -13.50000000000000178, -0.5000000000000000000 ) ) ;
#37 = CARTESIAN_POINT ( 'NONE',  ( 10.00000000000000178, -13.50000000000000178, 0.5000000000000000000 ) ) ;
#38 = CARTESIAN_POINT ( 'NONE',  ( -10.00000000000000178, 13.49999999999999822, -0.5000000000000000000 ) ) ;
#39 = LOCAL_TIME ( 13, 52, 41.00000000000000000, #214 ) ;
#40 = ORIENTED_EDGE ( 'NONE', *, *, #176, .F. ) ;
#41 = CARTESIAN_POINT ( 'NONE',  ( -9.999999999999998224, -13.50000000000000178, 0.5000000000000000000 ) ) ;
#42 = EDGE_CURVE ( 'NONE', #144, #51, #92, .T. ) ;
#43 = MECHANICAL_CONTEXT ( 'NONE', #132, 'mechanical' ) ;
#44 = CARTESIAN_POINT ( 'NONE',  ( -9.999999999999998224, -13.50000000000000178, 0.5000000000000000000 ) ) ;
#45 = DIRECTION ( 'NONE',  ( -1.000000000000000000, -0.0000000000000000000, -0.0000000000000000000 ) ) ;
#46 = VECTOR ( 'NONE', #223, 1000.000000000000000 ) ;
#47 = ORIENTED_EDGE ( 'NONE', *, *, #96, .T. ) ;
#48 = APPROVAL_ROLE ( '' ) ;
#49 = AXIS2_PLACEMENT_3D ( 'NONE', #206, #150, #165 ) ;
#50 = CALENDAR_DATE ( 2020, 31, 1 ) ;
#51 = VERTEX_POINT ( 'NONE', #34 ) ;
#52 = CC_DESIGN_APPROVAL ( #237, ( #179 ) ) ;
#53 = VECTOR ( 'NONE', #66, 1000.000000000000000 ) ;
#54 = EDGE_CURVE ( 'NONE', #147, #141, #184, .T. ) ;
#55 = SHAPE_DEFINITION_REPRESENTATION ( #191, #75 ) ;
#56 = EDGE_LOOP ( 'NONE', ( #171, #30, #213, #226 ) ) ;
#57 = PERSON ( 'UNSPECIFIED', 'UNSPECIFIED', 'UNSPECIFIED', ('UNSPECIFIED'), ('UNSPECIFIED'), ('UNSPECIFIED') ) ;
#58 = CARTESIAN_POINT ( 'NONE',  ( -9.999999999999998224, -13.50000000000000178, 0.5000000000000000000 ) ) ;
#59 = CALENDAR_DATE ( 2020, 31, 1 ) ;
#60 = CARTESIAN_POINT ( 'NONE',  ( 10.00000000000000178, -13.50000000000000178, -0.5000000000000000000 ) ) ;
#61 = PLANE ( 'NONE',  #227 ) ;
#62 = PERSON_AND_ORGANIZATION_ROLE ( 'design_owner' ) ;
#63 = LOCAL_TIME ( 13, 52, 41.00000000000000000, #111 ) ;
#64 = FACE_OUTER_BOUND ( 'NONE', #109, .T. ) ;
#65 = DIRECTION ( 'NONE',  ( -1.000000000000000000, -0.0000000000000000000, -0.0000000000000000000 ) ) ;
#66 = DIRECTION ( 'NONE',  ( 1.000000000000000000, 0.0000000000000000000, 0.0000000000000000000 ) ) ;
#67 = CC_DESIGN_PERSON_AND_ORGANIZATION_ASSIGNMENT ( #110, #26, ( #219 ) ) ;
#68 = AXIS2_PLACEMENT_3D ( 'NONE', #101, #224, #136 ) ;
#69 = FACE_OUTER_BOUND ( 'NONE', #159, .T. ) ;
#70 = PERSON_AND_ORGANIZATION ( #57, #235 ) ;
#71 = ORIENTED_EDGE ( 'NONE', *, *, #42, .F. ) ;
#72 = FACE_OUTER_BOUND ( 'NONE', #208, .T. ) ;
#73 = APPROVAL_PERSON_ORGANIZATION ( #133, #237, #48 ) ;
#74 = EDGE_LOOP ( 'NONE', ( #97, #76, #198, #163 ) ) ;
#75 = ADVANCED_BREP_SHAPE_REPRESENTATION ( 'Web Model 32269_46692', ( #228, #68 ), #164 ) ;
#76 = ORIENTED_EDGE ( 'NONE', *, *, #180, .F. ) ;
#77 = CARTESIAN_POINT ( 'NONE',  ( 9.999999999999998224, 13.49999999999999822, 0.5000000000000000000 ) ) ;
#78 = DIRECTION ( 'NONE',  ( 0.0000000000000000000, 1.000000000000000000, 0.0000000000000000000 ) ) ;
#79 = CARTESIAN_POINT ( 'NONE',  ( -10.00000000000000178, 13.49999999999999822, 0.5000000000000000000 ) ) ;
#80 = CC_DESIGN_PERSON_AND_ORGANIZATION_ASSIGNMENT ( #95, #209, ( #169 ) ) ;
#81 = DIRECTION ( 'NONE',  ( -0.0000000000000000000, -0.0000000000000000000, -1.000000000000000000 ) ) ;
#82 = CARTESIAN_POINT ( 'NONE',  ( -10.00000000000000178, 13.49999999999999822, 0.5000000000000000000 ) ) ;
#83 = ORIENTED_EDGE ( 'NONE', *, *, #216, .F. ) ;
#84 = PLANE ( 'NONE',  #3 ) ;
#85 = CARTESIAN_POINT ( 'NONE',  ( -10.00000000000000178, 13.49999999999999822, -0.5000000000000000000 ) ) ;
#86 = EDGE_CURVE ( 'NONE', #2, #147, #90, .T. ) ;
#87 = CARTESIAN_POINT ( 'NONE',  ( 10.00000000000000178, -13.50000000000000178, 0.5000000000000000000 ) ) ;
#88 = PLANE ( 'NONE',  #143 ) ;
#89 = APPROVAL_ROLE ( '' ) ;
#90 = LINE ( 'NONE', #82, #31 ) ;
#91 = PERSON_AND_ORGANIZATION ( #57, #235 ) ;
#92 = LINE ( 'NONE', #77, #129 ) ;
#93 = ORIENTED_EDGE ( 'NONE', *, *, #155, .F. ) ;
#94 = ADVANCED_FACE ( 'NONE', ( #190 ), #100, .T. ) ;
#95 = PERSON_AND_ORGANIZATION ( #57, #235 ) ;
#96 = EDGE_CURVE ( 'NONE', #51, #2, #168, .T. ) ;
#97 = ORIENTED_EDGE ( 'NONE', *, *, #107, .T. ) ;
#98 = DIRECTION ( 'NONE',  ( 1.284980352575412699E-16, -1.000000000000000000, 0.0000000000000000000 ) ) ;
#99 = CARTESIAN_POINT ( 'NONE',  ( -10.00000000000000178, 13.49999999999999822, 0.5000000000000000000 ) ) ;
#100 = PLANE ( 'NONE',  #49 ) ;
#101 = CARTESIAN_POINT ( 'NONE',  ( 0.0000000000000000000, 0.0000000000000000000, 0.0000000000000000000 ) ) ;
#102 = VECTOR ( 'NONE', #117, 1000.000000000000000 ) ;
#103 = VERTEX_POINT ( 'NONE', #60 ) ;
#104 = DIRECTION ( 'NONE',  ( 1.000000000000000000, 1.284980352575412946E-16, -0.0000000000000000000 ) ) ;
#105 = CC_DESIGN_PERSON_AND_ORGANIZATION_ASSIGNMENT ( #15, #62, ( #25 ) ) ;
#106 = LOCAL_TIME ( 13, 52, 41.00000000000000000, #149 ) ;
#107 = EDGE_CURVE ( 'NONE', #141, #103, #27, .T. ) ;
#108 = APPROVAL_DATE_TIME ( #201, #225 ) ;
#109 = EDGE_LOOP ( 'NONE', ( #14, #93, #71, #35 ) ) ;
#110 = PERSON_AND_ORGANIZATION ( #57, #235 ) ;
#111 = COORDINATED_UNIVERSAL_TIME_OFFSET ( 5, 0, .BEHIND. ) ;
#112 = ORIENTED_EDGE ( 'NONE', *, *, #166, .T. ) ;
#113 = DIRECTION ( 'NONE',  ( -1.000000000000000000, -1.284980352575412946E-16, 0.0000000000000000000 ) ) ;
#114 =( NAMED_UNIT ( * ) SI_UNIT ( $, .STERADIAN. ) SOLID_ANGLE_UNIT ( ) );
#115 = CARTESIAN_POINT ( 'NONE',  ( -10.00000000000000178, 13.49999999999999822, 0.5000000000000000000 ) ) ;
#116 = CC_DESIGN_PERSON_AND_ORGANIZATION_ASSIGNMENT ( #230, #156, ( #179 ) ) ;
#117 = DIRECTION ( 'NONE',  ( -1.284980352575412699E-16, 1.000000000000000000, -0.0000000000000000000 ) ) ;
#118 = FACE_OUTER_BOUND ( 'NONE', #74, .T. ) ;
#119 = DIRECTION ( 'NONE',  ( 0.0000000000000000000, -1.000000000000000000, 0.0000000000000000000 ) ) ;
#120 = EDGE_LOOP ( 'NONE', ( #215, #47, #17, #112 ) ) ;
#121 = CARTESIAN_POINT ( 'NONE',  ( -9.999999999999998224, -13.50000000000000178, 0.5000000000000000000 ) ) ;
#122 = APPROVAL_STATUS ( 'not_yet_approved' ) ;
#123 = VECTOR ( 'NONE', #45, 1000.000000000000000 ) ;
#124 = DATE_AND_TIME ( #50, #106 ) ;
#125 = VECTOR ( 'NONE', #20, 1000.000000000000000 ) ;
#126 = ORIENTED_EDGE ( 'NONE', *, *, #134, .F. ) ;
#127 = CC_DESIGN_DATE_AND_TIME_ASSIGNMENT ( #12, #175, ( #219 ) ) ;
#128 = CARTESIAN_POINT ( 'NONE',  ( 9.999999999999998224, 13.49999999999999822, 0.5000000000000000000 ) ) ;
#129 = VECTOR ( 'NONE', #202, 1000.000000000000000 ) ;
#130 = CC_DESIGN_APPROVAL ( #182, ( #169 ) ) ;
#131 =( LENGTH_UNIT ( ) NAMED_UNIT ( * ) SI_UNIT ( .MILLI., .METRE. ) );
#132 = APPLICATION_CONTEXT ( 'configuration controlled 3d designs of mechanical parts and assemblies' ) ;
#133 = PERSON_AND_ORGANIZATION ( #57, #235 ) ;
#134 = EDGE_CURVE ( 'NONE', #154, #147, #221, .T. ) ;
#135 = VECTOR ( 'NONE', #222, 1000.000000000000000 ) ;
#136 = DIRECTION ( 'NONE',  ( 1.000000000000000000, 0.0000000000000000000, 0.0000000000000000000 ) ) ;
#137 = PLANE ( 'NONE',  #200 ) ;
#138 = APPROVAL_ROLE ( '' ) ;
#139 = APPROVAL_STATUS ( 'not_yet_approved' ) ;
#140 = CARTESIAN_POINT ( 'NONE',  ( 9.999999999999998224, 13.49999999999999822, -0.5000000000000000000 ) ) ;
#141 = VERTEX_POINT ( 'NONE', #172 ) ;
#142 = VECTOR ( 'NONE', #65, 1000.000000000000000 ) ;
#143 = AXIS2_PLACEMENT_3D ( 'NONE', #210, #104, #21 ) ;
#144 = VERTEX_POINT ( 'NONE', #87 ) ;
#145 = APPROVAL_DATE_TIME ( #124, #182 ) ;
#146 = DATE_AND_TIME ( #162, #39 ) ;
#147 = VERTEX_POINT ( 'NONE', #10 ) ;
#148 =( NAMED_UNIT ( * ) PLANE_ANGLE_UNIT ( ) SI_UNIT ( $, .RADIAN. ) );
#149 = COORDINATED_UNIVERSAL_TIME_OFFSET ( 5, 0, .BEHIND. ) ;
#150 = DIRECTION ( 'NONE',  ( -0.0000000000000000000, 0.0000000000000000000, 1.000000000000000000 ) ) ;
#151 = APPLICATION_PROTOCOL_DEFINITION ( 'international standard', 'config_control_design', 1994, #132 ) ;
#152 = DIRECTION ( 'NONE',  ( 1.000000000000000000, 0.0000000000000000000, 0.0000000000000000000 ) ) ;
#153 = DIRECTION ( 'NONE',  ( -0.0000000000000000000, -0.0000000000000000000, -1.000000000000000000 ) ) ;
#154 = VERTEX_POINT ( 'NONE', #140 ) ;
#155 = EDGE_CURVE ( 'NONE', #51, #154, #178, .T. ) ;
#156 = PERSON_AND_ORGANIZATION_ROLE ( 'design_supplier' ) ;
#157 = DATE_AND_TIME ( #203, #220 ) ;
#158 = APPROVAL_PERSON_ORGANIZATION ( #91, #225, #89 ) ;
#159 = EDGE_LOOP ( 'NONE', ( #233, #83, #181, #186 ) ) ;
#160 = ADVANCED_FACE ( 'NONE', ( #72 ), #137, .F. ) ;
#161 = ADVANCED_FACE ( 'NONE', ( #69 ), #88, .F. ) ;
#162 = CALENDAR_DATE ( 2020, 31, 1 ) ;
#163 = ORIENTED_EDGE ( 'NONE', *, *, #216, .T. ) ;
#164 =( GEOMETRIC_REPRESENTATION_CONTEXT ( 3 ) GLOBAL_UNCERTAINTY_ASSIGNED_CONTEXT ( ( #236 ) ) GLOBAL_UNIT_ASSIGNED_CONTEXT ( ( #131, #148, #114 ) ) REPRESENTATION_CONTEXT ( 'NONE', 'WORKASPACE' ) );
#165 = DIRECTION ( 'NONE',  ( 1.000000000000000000, 0.0000000000000000000, 0.0000000000000000000 ) ) ;
#166 = EDGE_CURVE ( 'NONE', #174, #144, #197, .T. ) ;
#167 = DIRECTION ( 'NONE',  ( 1.284980352575412946E-16, -1.000000000000000000, 0.0000000000000000000 ) ) ;
#168 = LINE ( 'NONE', #188, #123 ) ;
#169 = PRODUCT_DEFINITION ( 'UNKNOWN', '', #179, #229 ) ;
#170 = DIRECTION ( 'NONE',  ( -0.0000000000000000000, -0.0000000000000000000, -1.000000000000000000 ) ) ;
#171 = ORIENTED_EDGE ( 'NONE', *, *, #134, .T. ) ;
#172 = CARTESIAN_POINT ( 'NONE',  ( -9.999999999999998224, -13.50000000000000178, -0.5000000000000000000 ) ) ;
#173 = CARTESIAN_POINT ( 'NONE',  ( 0.0000000000000000000, 0.0000000000000000000, -0.5000000000000000000 ) ) ;
#174 = VERTEX_POINT ( 'NONE', #44 ) ;
#175 = DATE_TIME_ROLE ( 'classification_date' ) ;
#176 = EDGE_CURVE ( 'NONE', #103, #154, #232, .T. ) ;
#177 = CALENDAR_DATE ( 2020, 31, 1 ) ;
#178 = LINE ( 'NONE', #4, #46 ) ;
#179 = PRODUCT_DEFINITION_FORMATION_WITH_SPECIFIED_SOURCE ( 'ANY', '', #25, .NOT_KNOWN. ) ;
#180 = EDGE_CURVE ( 'NONE', #144, #103, #199, .T. ) ;
#181 = ORIENTED_EDGE ( 'NONE', *, *, #6, .F. ) ;
#182 = APPROVAL ( #122, 'UNSPECIFIED' ) ;
#183 = COORDINATED_UNIVERSAL_TIME_OFFSET ( 5, 0, .BEHIND. ) ;
#184 = LINE ( 'NONE', #38, #19 ) ;
#185 = ADVANCED_FACE ( 'NONE', ( #118 ), #61, .F. ) ;
#186 = ORIENTED_EDGE ( 'NONE', *, *, #86, .T. ) ;
#187 = AXIS2_PLACEMENT_3D ( 'NONE', #128, #113, #167 ) ;
#188 = CARTESIAN_POINT ( 'NONE',  ( -10.00000000000000178, 13.49999999999999822, 0.5000000000000000000 ) ) ;
#189 = VECTOR ( 'NONE', #153, 1000.000000000000000 ) ;
#190 = FACE_OUTER_BOUND ( 'NONE', #120, .T. ) ;
#191 = PRODUCT_DEFINITION_SHAPE ( 'NONE', 'NONE',  #169 ) ;
#192 = APPLICATION_CONTEXT ( 'configuration controlled 3d designs of mechanical parts and assemblies' ) ;
#193 = CARTESIAN_POINT ( 'NONE',  ( 9.999999999999998224, 13.49999999999999822, -0.5000000000000000000 ) ) ;
#194 = APPROVAL_PERSON_ORGANIZATION ( #70, #182, #138 ) ;
#195 = APPROVAL_STATUS ( 'not_yet_approved' ) ;
#196 = VECTOR ( 'NONE', #81, 1000.000000000000000 ) ;
#197 = LINE ( 'NONE', #41, #53 ) ;
#198 = ORIENTED_EDGE ( 'NONE', *, *, #166, .F. ) ;
#199 = LINE ( 'NONE', #37, #196 ) ;
#200 = AXIS2_PLACEMENT_3D ( 'NONE', #173, #23, #152 ) ;
#201 = DATE_AND_TIME ( #177, #63 ) ;
#202 = DIRECTION ( 'NONE',  ( -1.284980352575412699E-16, 1.000000000000000000, -0.0000000000000000000 ) ) ;
#203 = CALENDAR_DATE ( 2020, 31, 1 ) ;
#204 = DIRECTION ( 'NONE',  ( 0.0000000000000000000, -0.0000000000000000000, 1.000000000000000000 ) ) ;
#205 = DIRECTION ( 'NONE',  ( 0.0000000000000000000, -0.0000000000000000000, -1.000000000000000000 ) ) ;
#206 = CARTESIAN_POINT ( 'NONE',  ( 0.0000000000000000000, 0.0000000000000000000, 0.5000000000000000000 ) ) ;
#207 = LOCAL_TIME ( 13, 52, 41.00000000000000000, #183 ) ;
#208 = EDGE_LOOP ( 'NONE', ( #40, #22, #231, #126 ) ) ;
#209 = PERSON_AND_ORGANIZATION_ROLE ( 'creator' ) ;
#210 = CARTESIAN_POINT ( 'NONE',  ( -10.00000000000000178, 13.49999999999999822, 0.5000000000000000000 ) ) ;
#211 = CC_DESIGN_DATE_AND_TIME_ASSIGNMENT ( #157, #9, ( #169 ) ) ;
#212 = PERSON_AND_ORGANIZATION_ROLE ( 'creator' ) ;
#213 = ORIENTED_EDGE ( 'NONE', *, *, #96, .F. ) ;
#214 = COORDINATED_UNIVERSAL_TIME_OFFSET ( 5, 0, .BEHIND. ) ;
#215 = ORIENTED_EDGE ( 'NONE', *, *, #42, .T. ) ;
#216 = EDGE_CURVE ( 'NONE', #174, #141, #13, .T. ) ;
#217 = CLOSED_SHELL ( 'NONE', ( #33, #234, #161, #185, #94, #160 ) ) ;
#218 = LINE ( 'NONE', #115, #125 ) ;
#219 = SECURITY_CLASSIFICATION ( '', '', #28 ) ;
#220 = LOCAL_TIME ( 13, 52, 41.00000000000000000, #29 ) ;
#221 = LINE ( 'NONE', #85, #142 ) ;
#222 = DIRECTION ( 'NONE',  ( 1.000000000000000000, 0.0000000000000000000, 0.0000000000000000000 ) ) ;
#223 = DIRECTION ( 'NONE',  ( -0.0000000000000000000, -0.0000000000000000000, -1.000000000000000000 ) ) ;
#224 = DIRECTION ( 'NONE',  ( 0.0000000000000000000, 0.0000000000000000000, 1.000000000000000000 ) ) ;
#225 = APPROVAL ( #195, 'UNSPECIFIED' ) ;
#226 = ORIENTED_EDGE ( 'NONE', *, *, #155, .T. ) ;
#227 = AXIS2_PLACEMENT_3D ( 'NONE', #58, #78, #204 ) ;
#228 = MANIFOLD_SOLID_BREP ( 'Boss-Extrude1', #217 ) ;
#229 = DESIGN_CONTEXT ( 'detailed design', #192, 'design' ) ;
#230 = PERSON_AND_ORGANIZATION ( #57, #235 ) ;
#231 = ORIENTED_EDGE ( 'NONE', *, *, #54, .F. ) ;
#232 = LINE ( 'NONE', #193, #102 ) ;
#233 = ORIENTED_EDGE ( 'NONE', *, *, #54, .T. ) ;
#234 = ADVANCED_FACE ( 'NONE', ( #32 ), #84, .F. ) ;
#235 = ORGANIZATION ( 'UNSPECIFIED', 'UNSPECIFIED', '' ) ;
#236 = UNCERTAINTY_MEASURE_WITH_UNIT (LENGTH_MEASURE( 1.000000000000000082E-05 ), #131, 'distance_accuracy_value', 'NONE');
#237 = APPROVAL ( #139, 'UNSPECIFIED' ) ;
ENDSEC;
END-ISO-10303-21;
