ISO-10303-21;
HEADER;
FILE_DESCRIPTION (( 'STEP AP203' ),
    '1' );
FILE_NAME ('Web Model 17281_17281.step',
    '2021-04-19T18:41:30',
    ( '' ),
    ( '' ),
    'SwSTEP 2.0',
    'SolidWorks 2018',
    '' );
FILE_SCHEMA (( 'CONFIG_CONTROL_DESIGN' ));
ENDSEC;

DATA;
#1 = DIRECTION ( 'NONE',  ( -1.000000000000000000, 0.000000000000000000, 0.000000000000000000 ) ) ;
#2 = DIRECTION ( 'NONE',  ( 1.000000000000000000, 0.000000000000000000, 0.000000000000000000 ) ) ;
#3 = CIRCLE ( 'NONE', #9, 6.349999999999999645 ) ;
#4 = EDGE_LOOP ( 'NONE', ( #68, #153, #145, #61 ) ) ;
#5 = CARTESIAN_POINT ( 'NONE',  ( 0.000000000000000000, 0.000000000000000000, 2.000000000000000000 ) ) ;
#6 = DIRECTION ( 'NONE',  ( 1.000000000000000000, 0.000000000000000000, 0.000000000000000000 ) ) ;
#7 = EDGE_LOOP ( 'NONE', ( #123, #171, #129, #72 ) ) ;
#8 = CALENDAR_DATE ( 2021, 19, 4 ) ;
#9 = AXIS2_PLACEMENT_3D ( 'NONE', #5, #121, #6 ) ;
#10 = CARTESIAN_POINT ( 'NONE',  ( 0.000000000000000000, 0.000000000000000000, 2.000000000000000000 ) ) ;
#11 = COORDINATED_UNIVERSAL_TIME_OFFSET ( 5, 0, .BEHIND. ) ;
#12 = CC_DESIGN_APPROVAL ( #105, ( #56 ) ) ;
#13 = DATE_AND_TIME ( #130, #120 ) ;
#14 = PERSON_AND_ORGANIZATION ( #106, #86 ) ;
#15 = CIRCLE ( 'NONE', #133, 6.349999999999999645 ) ;
#16 = CLOSED_SHELL ( 'NONE', ( #148, #102, #134, #124 ) ) ;
#17 = SHAPE_DEFINITION_REPRESENTATION ( #135, #108 ) ;
#18 = CARTESIAN_POINT ( 'NONE',  ( 6.349999999999999645, 7.776507174585692163E-16, 0.000000000000000000 ) ) ;
#19 = AXIS2_PLACEMENT_3D ( 'NONE', #10, #99, #58 ) ;
#20 = DIRECTION ( 'NONE',  ( 0.000000000000000000, 0.000000000000000000, 1.000000000000000000 ) ) ;
#21 = DIRECTION ( 'NONE',  ( 1.000000000000000000, 0.000000000000000000, -0.000000000000000000 ) ) ;
#22 = MECHANICAL_CONTEXT ( 'NONE', #114, 'mechanical' ) ;
#23 = CALENDAR_DATE ( 2021, 19, 4 ) ;
#24 = PERSON_AND_ORGANIZATION_ROLE ( 'design_owner' ) ;
#25 = COORDINATED_UNIVERSAL_TIME_OFFSET ( 5, 0, .BEHIND. ) ;
#26 = EDGE_CURVE ( 'NONE', #53, #165, #3, .T. ) ;
#27 = COORDINATED_UNIVERSAL_TIME_OFFSET ( 5, 0, .BEHIND. ) ;
#28 = CC_DESIGN_APPROVAL ( #76, ( #174 ) ) ;
#29 = LINE ( 'NONE', #147, #149 ) ;
#30 = EDGE_LOOP ( 'NONE', ( #79, #37 ) ) ;
#31 = DIRECTION ( 'NONE',  ( 0.000000000000000000, 0.000000000000000000, 1.000000000000000000 ) ) ;
#32 = CARTESIAN_POINT ( 'NONE',  ( 0.000000000000000000, 0.000000000000000000, 2.000000000000000000 ) ) ;
#33 = DIRECTION ( 'NONE',  ( 0.000000000000000000, 0.000000000000000000, 1.000000000000000000 ) ) ;
#34 = LOCAL_TIME ( 14, 41, 30.00000000000000000, #25 ) ;
#35 = APPROVAL_STATUS ( 'not_yet_approved' ) ;
#36 = CC_DESIGN_APPROVAL ( #45, ( #115 ) ) ;
#37 = ORIENTED_EDGE ( 'NONE', *, *, #166, .T. ) ;
#38 = PERSON_AND_ORGANIZATION_ROLE ( 'creator' ) ;
#39 = PERSON_AND_ORGANIZATION ( #106, #86 ) ;
#40 = LINE ( 'NONE', #89, #158 ) ;
#41 = PRODUCT ( 'Web Model 17281_17281', 'Web Model 17281_17281', '', ( #22 ) ) ;
#42 = CC_DESIGN_DATE_AND_TIME_ASSIGNMENT ( #65, #62, ( #174 ) ) ;
#43 = DESIGN_CONTEXT ( 'detailed design', #151, 'design' ) ;
#44 = CARTESIAN_POINT ( 'NONE',  ( 0.000000000000000000, 0.000000000000000000, 0.000000000000000000 ) ) ;
#45 = APPROVAL ( #91, 'UNSPECIFIED' ) ;
#46 = APPROVAL_DATE_TIME ( #103, #45 ) ;
#47 =( NAMED_UNIT ( * ) PLANE_ANGLE_UNIT ( ) SI_UNIT ( $, .RADIAN. ) );
#48 =( LENGTH_UNIT ( ) NAMED_UNIT ( * ) SI_UNIT ( .MILLI., .METRE. ) );
#49 = CC_DESIGN_PERSON_AND_ORGANIZATION_ASSIGNMENT ( #88, #74, ( #115 ) ) ;
#50 = DATE_AND_TIME ( #51, #160 ) ;
#51 = CALENDAR_DATE ( 2021, 19, 4 ) ;
#52 = CYLINDRICAL_SURFACE ( 'NONE', #150, 6.349999999999999645 ) ;
#53 = VERTEX_POINT ( 'NONE', #169 ) ;
#54 = CARTESIAN_POINT ( 'NONE',  ( 0.000000000000000000, 0.000000000000000000, 0.000000000000000000 ) ) ;
#55 = DATE_AND_TIME ( #23, #34 ) ;
#56 = SECURITY_CLASSIFICATION ( '', '', #104 ) ;
#57 = DIRECTION ( 'NONE',  ( 1.000000000000000000, 0.000000000000000000, 0.000000000000000000 ) ) ;
#58 = DIRECTION ( 'NONE',  ( 1.000000000000000000, 0.000000000000000000, 0.000000000000000000 ) ) ;
#59 =( NAMED_UNIT ( * ) SI_UNIT ( $, .STERADIAN. ) SOLID_ANGLE_UNIT ( ) );
#60 = VERTEX_POINT ( 'NONE', #18 ) ;
#61 = ORIENTED_EDGE ( 'NONE', *, *, #71, .F. ) ;
#62 = DATE_TIME_ROLE ( 'creation_date' ) ;
#63 = EDGE_CURVE ( 'NONE', #60, #141, #15, .T. ) ;
#64 = PERSON_AND_ORGANIZATION ( #106, #86 ) ;
#65 = DATE_AND_TIME ( #113, #127 ) ;
#66 = CARTESIAN_POINT ( 'NONE',  ( 0.000000000000000000, 0.000000000000000000, 2.000000000000000000 ) ) ;
#67 = CARTESIAN_POINT ( 'NONE',  ( 0.000000000000000000, 0.000000000000000000, 0.000000000000000000 ) ) ;
#68 = ORIENTED_EDGE ( 'NONE', *, *, #166, .F. ) ;
#69 = DIRECTION ( 'NONE',  ( -0.000000000000000000, -0.000000000000000000, -1.000000000000000000 ) ) ;
#70 = DIRECTION ( 'NONE',  ( -0.000000000000000000, -0.000000000000000000, -1.000000000000000000 ) ) ;
#71 = EDGE_CURVE ( 'NONE', #53, #141, #29, .T. ) ;
#72 = ORIENTED_EDGE ( 'NONE', *, *, #152, .T. ) ;
#73 = APPLICATION_PROTOCOL_DEFINITION ( 'international standard', 'config_control_design', 1994, #151 ) ;
#74 = PERSON_AND_ORGANIZATION_ROLE ( 'design_supplier' ) ;
#75 = CIRCLE ( 'NONE', #19, 6.349999999999999645 ) ;
#76 = APPROVAL ( #35, 'UNSPECIFIED' ) ;
#77 = APPROVAL_ROLE ( '' ) ;
#78 = COORDINATED_UNIVERSAL_TIME_OFFSET ( 5, 0, .BEHIND. ) ;
#79 = ORIENTED_EDGE ( 'NONE', *, *, #26, .T. ) ;
#80 = ORIENTED_EDGE ( 'NONE', *, *, #152, .F. ) ;
#81 = CARTESIAN_POINT ( 'NONE',  ( 0.000000000000000000, 0.000000000000000000, 2.000000000000000000 ) ) ;
#82 = DIRECTION ( 'NONE',  ( 0.000000000000000000, 0.000000000000000000, 1.000000000000000000 ) ) ;
#83 = DIRECTION ( 'NONE',  ( 0.000000000000000000, 0.000000000000000000, 1.000000000000000000 ) ) ;
#84 = CC_DESIGN_PERSON_AND_ORGANIZATION_ASSIGNMENT ( #14, #140, ( #56 ) ) ;
#85 = CARTESIAN_POINT ( 'NONE',  ( -6.349999999999999645, 0.000000000000000000, 0.000000000000000000 ) ) ;
#86 = ORGANIZATION ( 'UNSPECIFIED', 'UNSPECIFIED', '' ) ;
#87 = PERSON_AND_ORGANIZATION ( #106, #86 ) ;
#88 = PERSON_AND_ORGANIZATION ( #106, #86 ) ;
#89 = CARTESIAN_POINT ( 'NONE',  ( 6.349999999999999645, 7.776507174585692163E-16, 2.000000000000000000 ) ) ;
#90 = APPROVAL_PERSON_ORGANIZATION ( #163, #45, #128 ) ;
#91 = APPROVAL_STATUS ( 'not_yet_approved' ) ;
#92 = CIRCLE ( 'NONE', #144, 6.349999999999999645 ) ;
#93 = EDGE_LOOP ( 'NONE', ( #80, #139 ) ) ;
#94 = PERSON_AND_ORGANIZATION ( #106, #86 ) ;
#95 = FACE_OUTER_BOUND ( 'NONE', #7, .T. ) ;
#96 = CC_DESIGN_PERSON_AND_ORGANIZATION_ASSIGNMENT ( #94, #38, ( #115 ) ) ;
#97 = APPROVAL_PERSON_ORGANIZATION ( #64, #76, #126 ) ;
#98 = PLANE ( 'NONE',  #142 ) ;
#99 = DIRECTION ( 'NONE',  ( 0.000000000000000000, 0.000000000000000000, 1.000000000000000000 ) ) ;
#100 =( GEOMETRIC_REPRESENTATION_CONTEXT ( 3 ) GLOBAL_UNCERTAINTY_ASSIGNED_CONTEXT ( ( #117 ) ) GLOBAL_UNIT_ASSIGNED_CONTEXT ( ( #48, #47, #59 ) ) REPRESENTATION_CONTEXT ( 'NONE', 'WORKASPACE' ) );
#101 = PERSON_AND_ORGANIZATION_ROLE ( 'creator' ) ;
#102 = ADVANCED_FACE ( 'NONE', ( #95 ), #138, .T. ) ;
#103 = DATE_AND_TIME ( #8, #146 ) ;
#104 = SECURITY_CLASSIFICATION_LEVEL ( 'unclassified' ) ;
#105 = APPROVAL ( #156, 'UNSPECIFIED' ) ;
#106 = PERSON ( 'UNSPECIFIED', 'UNSPECIFIED', 'UNSPECIFIED', ('UNSPECIFIED'), ('UNSPECIFIED'), ('UNSPECIFIED') ) ;
#107 = AXIS2_PLACEMENT_3D ( 'NONE', #167, #33, #137 ) ;
#108 = ADVANCED_BREP_SHAPE_REPRESENTATION ( 'Web Model 17281_17281', ( #159, #107 ), #100 ) ;
#109 = DIRECTION ( 'NONE',  ( -0.000000000000000000, -0.000000000000000000, -1.000000000000000000 ) ) ;
#110 = CC_DESIGN_SECURITY_CLASSIFICATION ( #56, ( #115 ) ) ;
#111 = CC_DESIGN_DATE_AND_TIME_ASSIGNMENT ( #55, #157, ( #56 ) ) ;
#112 = DIRECTION ( 'NONE',  ( 1.000000000000000000, 0.000000000000000000, -0.000000000000000000 ) ) ;
#113 = CALENDAR_DATE ( 2021, 19, 4 ) ;
#114 = APPLICATION_CONTEXT ( 'configuration controlled 3d designs of mechanical parts and assemblies' ) ;
#115 = PRODUCT_DEFINITION_FORMATION_WITH_SPECIFIED_SOURCE ( 'ANY', '', #41, .NOT_KNOWN. ) ;
#116 = AXIS2_PLACEMENT_3D ( 'NONE', #32, #70, #118 ) ;
#117 = UNCERTAINTY_MEASURE_WITH_UNIT (LENGTH_MEASURE( 1.000000000000000082E-05 ), #48, 'distance_accuracy_value', 'NONE');
#118 = DIRECTION ( 'NONE',  ( -1.000000000000000000, 0.000000000000000000, 0.000000000000000000 ) ) ;
#119 = COORDINATED_UNIVERSAL_TIME_OFFSET ( 5, 0, .BEHIND. ) ;
#120 = LOCAL_TIME ( 14, 41, 30.00000000000000000, #11 ) ;
#121 = DIRECTION ( 'NONE',  ( 0.000000000000000000, 0.000000000000000000, 1.000000000000000000 ) ) ;
#122 = FACE_OUTER_BOUND ( 'NONE', #4, .T. ) ;
#123 = ORIENTED_EDGE ( 'NONE', *, *, #172, .F. ) ;
#124 = ADVANCED_FACE ( 'NONE', ( #132 ), #131, .F. ) ;
#125 = AXIS2_PLACEMENT_3D ( 'NONE', #54, #82, #21 ) ;
#126 = APPROVAL_ROLE ( '' ) ;
#127 = LOCAL_TIME ( 14, 41, 30.00000000000000000, #27 ) ;
#128 = APPROVAL_ROLE ( '' ) ;
#129 = ORIENTED_EDGE ( 'NONE', *, *, #71, .T. ) ;
#130 = CALENDAR_DATE ( 2021, 19, 4 ) ;
#131 = PLANE ( 'NONE',  #125 ) ;
#132 = FACE_OUTER_BOUND ( 'NONE', #93, .T. ) ;
#133 = AXIS2_PLACEMENT_3D ( 'NONE', #44, #31, #57 ) ;
#134 = ADVANCED_FACE ( 'NONE', ( #161 ), #98, .T. ) ;
#135 = PRODUCT_DEFINITION_SHAPE ( 'NONE', 'NONE',  #174 ) ;
#136 = APPLICATION_PROTOCOL_DEFINITION ( 'international standard', 'config_control_design', 1994, #114 ) ;
#137 = DIRECTION ( 'NONE',  ( 1.000000000000000000, 0.000000000000000000, 0.000000000000000000 ) ) ;
#138 = CYLINDRICAL_SURFACE ( 'NONE', #116, 6.349999999999999645 ) ;
#139 = ORIENTED_EDGE ( 'NONE', *, *, #63, .F. ) ;
#140 = PERSON_AND_ORGANIZATION_ROLE ( 'classification_officer' ) ;
#141 = VERTEX_POINT ( 'NONE', #85 ) ;
#142 = AXIS2_PLACEMENT_3D ( 'NONE', #66, #20, #112 ) ;
#143 = PERSON_AND_ORGANIZATION ( #106, #86 ) ;
#144 = AXIS2_PLACEMENT_3D ( 'NONE', #67, #83, #2 ) ;
#145 = ORIENTED_EDGE ( 'NONE', *, *, #63, .T. ) ;
#146 = LOCAL_TIME ( 14, 41, 30.00000000000000000, #119 ) ;
#147 = CARTESIAN_POINT ( 'NONE',  ( -6.349999999999999645, 0.000000000000000000, 2.000000000000000000 ) ) ;
#148 = ADVANCED_FACE ( 'NONE', ( #122 ), #52, .T. ) ;
#149 = VECTOR ( 'NONE', #69, 1000.000000000000000 ) ;
#150 = AXIS2_PLACEMENT_3D ( 'NONE', #81, #109, #1 ) ;
#151 = APPLICATION_CONTEXT ( 'configuration controlled 3d designs of mechanical parts and assemblies' ) ;
#152 = EDGE_CURVE ( 'NONE', #141, #60, #92, .T. ) ;
#153 = ORIENTED_EDGE ( 'NONE', *, *, #172, .T. ) ;
#154 = APPROVAL_DATE_TIME ( #50, #105 ) ;
#155 = PRODUCT_RELATED_PRODUCT_CATEGORY ( 'detail', '', ( #41 ) ) ;
#156 = APPROVAL_STATUS ( 'not_yet_approved' ) ;
#157 = DATE_TIME_ROLE ( 'classification_date' ) ;
#158 = VECTOR ( 'NONE', #168, 1000.000000000000000 ) ;
#159 = MANIFOLD_SOLID_BREP ( 'Boss-Extrude1', #16 ) ;
#160 = LOCAL_TIME ( 14, 41, 30.00000000000000000, #78 ) ;
#161 = FACE_OUTER_BOUND ( 'NONE', #30, .T. ) ;
#162 = CARTESIAN_POINT ( 'NONE',  ( 6.349999999999999645, 7.776507174585692163E-16, 2.000000000000000000 ) ) ;
#163 = PERSON_AND_ORGANIZATION ( #106, #86 ) ;
#164 = CC_DESIGN_PERSON_AND_ORGANIZATION_ASSIGNMENT ( #87, #24, ( #41 ) ) ;
#165 = VERTEX_POINT ( 'NONE', #162 ) ;
#166 = EDGE_CURVE ( 'NONE', #165, #53, #75, .T. ) ;
#167 = CARTESIAN_POINT ( 'NONE',  ( 0.000000000000000000, 0.000000000000000000, 0.000000000000000000 ) ) ;
#168 = DIRECTION ( 'NONE',  ( -0.000000000000000000, -0.000000000000000000, -1.000000000000000000 ) ) ;
#169 = CARTESIAN_POINT ( 'NONE',  ( -6.349999999999999645, 0.000000000000000000, 2.000000000000000000 ) ) ;
#170 = APPROVAL_DATE_TIME ( #13, #76 ) ;
#171 = ORIENTED_EDGE ( 'NONE', *, *, #26, .F. ) ;
#172 = EDGE_CURVE ( 'NONE', #165, #60, #40, .T. ) ;
#173 = APPROVAL_PERSON_ORGANIZATION ( #143, #105, #77 ) ;
#174 = PRODUCT_DEFINITION ( 'UNKNOWN', '', #115, #43 ) ;
#175 = CC_DESIGN_PERSON_AND_ORGANIZATION_ASSIGNMENT ( #39, #101, ( #174 ) ) ;
ENDSEC;
END-ISO-10303-21;
