ISO-10303-21;
HEADER;
FILE_DESCRIPTION (( 'STEP AP203' ),
    '1' );
FILE_NAME ('Web Model 48859_63218.step',
    '2017-03-01T20:58:07',
    ( '' ),
    ( '' ),
    'SwSTEP 2.0',
    'SolidWorks 2016',
    '' );
FILE_SCHEMA (( 'CONFIG_CONTROL_DESIGN' ));
ENDSEC;

DATA;
#1 = CC_DESIGN_PERSON_AND_ORGANIZATION_ASSIGNMENT ( #141, #121, ( #155 ) ) ;
#2 = CIRCLE ( 'NONE', #89, 101.5999999999999900 ) ;
#3 = DATE_TIME_ROLE ( 'classification_date' ) ;
#4 = PRODUCT ( 'Web Model 48859_63218', 'Web Model 48859_63218', '', ( #164 ) ) ;
#5 = APPROVAL_STATUS ( 'not_yet_approved' ) ;
#6 = DIRECTION ( 'NONE',  ( 0.0000000000000000000, 0.0000000000000000000, 1.000000000000000000 ) ) ;
#7 = APPROVAL_DATE_TIME ( #12, #51 ) ;
#8 = DIRECTION ( 'NONE',  ( 0.0000000000000000000, 0.0000000000000000000, 1.000000000000000000 ) ) ;
#9 = CC_DESIGN_PERSON_AND_ORGANIZATION_ASSIGNMENT ( #145, #15, ( #155 ) ) ;
#10 = PERSON_AND_ORGANIZATION_ROLE ( 'design_owner' ) ;
#11 = CARTESIAN_POINT ( 'NONE',  ( 101.5999999999999900, 1.244241147933710700E-014, 0.0000000000000000000 ) ) ;
#12 = DATE_AND_TIME ( #49, #88 ) ;
#13 = EDGE_CURVE ( 'NONE', #147, #174, #96, .T. ) ;
#14 = AXIS2_PLACEMENT_3D ( 'NONE', #118, #43, #41 ) ;
#15 = PERSON_AND_ORGANIZATION_ROLE ( 'design_supplier' ) ;
#16 = PERSON ( 'UNSPECIFIED', 'UNSPECIFIED', 'UNSPECIFIED', ('UNSPECIFIED'), ('UNSPECIFIED'), ('UNSPECIFIED') ) ;
#17 = PERSON_AND_ORGANIZATION_ROLE ( 'classification_officer' ) ;
#18 = CLOSED_SHELL ( 'NONE', ( #38, #113, #21, #134 ) ) ;
#19 = SECURITY_CLASSIFICATION ( '', '', #82 ) ;
#20 = CARTESIAN_POINT ( 'NONE',  ( 0.0000000000000000000, 0.0000000000000000000, 1.000000000000000000 ) ) ;
#21 = ADVANCED_FACE ( 'NONE', ( #170 ), #132, .T. ) ;
#22 = DATE_AND_TIME ( #107, #72 ) ;
#23 = EDGE_CURVE ( 'NONE', #160, #147, #83, .T. ) ;
#24 = CC_DESIGN_PERSON_AND_ORGANIZATION_ASSIGNMENT ( #114, #10, ( #4 ) ) ;
#25 = CARTESIAN_POINT ( 'NONE',  ( -101.5999999999999900, 0.0000000000000000000, 0.0000000000000000000 ) ) ;
#26 = ORGANIZATION ( 'UNSPECIFIED', 'UNSPECIFIED', '' ) ;
#27 = PERSON_AND_ORGANIZATION ( #16, #26 ) ;
#28 = COORDINATED_UNIVERSAL_TIME_OFFSET ( 5, 0, .BEHIND. ) ;
#29 = CC_DESIGN_PERSON_AND_ORGANIZATION_ASSIGNMENT ( #60, #17, ( #19 ) ) ;
#30 = APPROVAL_DATE_TIME ( #98, #161 ) ;
#31 = PERSON_AND_ORGANIZATION_ROLE ( 'creator' ) ;
#32 = EDGE_CURVE ( 'NONE', #174, #147, #2, .T. ) ;
#33 = PRODUCT_DEFINITION ( 'UNKNOWN', '', #155, #57 ) ;
#34 = VECTOR ( 'NONE', #126, 1000.000000000000000 ) ;
#35 = DIRECTION ( 'NONE',  ( 1.000000000000000000, 0.0000000000000000000, -0.0000000000000000000 ) ) ;
#36 = LOCAL_TIME ( 15, 58, 7.000000000000000000, #91 ) ;
#37 = COORDINATED_UNIVERSAL_TIME_OFFSET ( 5, 0, .BEHIND. ) ;
#38 = ADVANCED_FACE ( 'NONE', ( #135 ), #52, .T. ) ;
#39 = CC_DESIGN_DATE_AND_TIME_ASSIGNMENT ( #146, #3, ( #19 ) ) ;
#40 = DIRECTION ( 'NONE',  ( 0.0000000000000000000, 0.0000000000000000000, 1.000000000000000000 ) ) ;
#41 = DIRECTION ( 'NONE',  ( 1.000000000000000000, 0.0000000000000000000, 0.0000000000000000000 ) ) ;
#42 = SHAPE_DEFINITION_REPRESENTATION ( #94, #105 ) ;
#43 = DIRECTION ( 'NONE',  ( 0.0000000000000000000, 0.0000000000000000000, 1.000000000000000000 ) ) ;
#44 = EDGE_CURVE ( 'NONE', #163, #160, #47, .T. ) ;
#45 = DIRECTION ( 'NONE',  ( 0.0000000000000000000, 0.0000000000000000000, 1.000000000000000000 ) ) ;
#46 = CARTESIAN_POINT ( 'NONE',  ( 0.0000000000000000000, 0.0000000000000000000, 0.0000000000000000000 ) ) ;
#47 = CIRCLE ( 'NONE', #120, 101.5999999999999900 ) ;
#48 = EDGE_LOOP ( 'NONE', ( #117, #111 ) ) ;
#49 = CALENDAR_DATE ( 2017, 1, 3 ) ;
#50 = DATE_TIME_ROLE ( 'creation_date' ) ;
#51 = APPROVAL ( #92, 'UNSPECIFIED' ) ;
#52 = CYLINDRICAL_SURFACE ( 'NONE', #129, 101.5999999999999900 ) ;
#53 = ORIENTED_EDGE ( 'NONE', *, *, #13, .F. ) ;
#54 = APPROVAL_PERSON_ORGANIZATION ( #175, #51, #109 ) ;
#55 = DIRECTION ( 'NONE',  ( -0.0000000000000000000, -0.0000000000000000000, -1.000000000000000000 ) ) ;
#56 = DIRECTION ( 'NONE',  ( 1.000000000000000000, 0.0000000000000000000, 0.0000000000000000000 ) ) ;
#57 = DESIGN_CONTEXT ( 'detailed design', #76, 'design' ) ;
#58 = EDGE_CURVE ( 'NONE', #163, #174, #65, .T. ) ;
#59 = DIRECTION ( 'NONE',  ( 0.0000000000000000000, 0.0000000000000000000, 1.000000000000000000 ) ) ;
#60 = PERSON_AND_ORGANIZATION ( #16, #26 ) ;
#61 = CARTESIAN_POINT ( 'NONE',  ( -101.5999999999999900, 0.0000000000000000000, 1.000000000000000000 ) ) ;
#62 = APPROVAL_PERSON_ORGANIZATION ( #103, #123, #148 ) ;
#63 = CC_DESIGN_APPROVAL ( #51, ( #19 ) ) ;
#64 = ORIENTED_EDGE ( 'NONE', *, *, #58, .F. ) ;
#65 = LINE ( 'NONE', #73, #156 ) ;
#66 = APPROVAL_STATUS ( 'not_yet_approved' ) ;
#67 = EDGE_CURVE ( 'NONE', #160, #163, #77, .T. ) ;
#68 = CARTESIAN_POINT ( 'NONE',  ( 0.0000000000000000000, 0.0000000000000000000, 1.000000000000000000 ) ) ;
#69 = CYLINDRICAL_SURFACE ( 'NONE', #152, 101.5999999999999900 ) ;
#70 = CARTESIAN_POINT ( 'NONE',  ( 0.0000000000000000000, 0.0000000000000000000, 0.0000000000000000000 ) ) ;
#71 = COORDINATED_UNIVERSAL_TIME_OFFSET ( 5, 0, .BEHIND. ) ;
#72 = LOCAL_TIME ( 15, 58, 7.000000000000000000, #28 ) ;
#73 = CARTESIAN_POINT ( 'NONE',  ( 101.5999999999999900, 1.244241147933710700E-014, 1.000000000000000000 ) ) ;
#74 = CC_DESIGN_SECURITY_CLASSIFICATION ( #19, ( #155 ) ) ;
#75 = CARTESIAN_POINT ( 'NONE',  ( 101.5999999999999900, 1.244241147933710700E-014, 1.000000000000000000 ) ) ;
#76 = APPLICATION_CONTEXT ( 'configuration controlled 3d designs of mechanical parts and assemblies' ) ;
#77 = CIRCLE ( 'NONE', #110, 101.5999999999999900 ) ;
#78 = DIRECTION ( 'NONE',  ( 1.000000000000000000, 0.0000000000000000000, -0.0000000000000000000 ) ) ;
#79 = APPROVAL_PERSON_ORGANIZATION ( #27, #161, #122 ) ;
#80 = PERSON_AND_ORGANIZATION ( #16, #26 ) ;
#81 = AXIS2_PLACEMENT_3D ( 'NONE', #46, #45, #84 ) ;
#82 = SECURITY_CLASSIFICATION_LEVEL ( 'unclassified' ) ;
#83 = LINE ( 'NONE', #115, #34 ) ;
#84 = DIRECTION ( 'NONE',  ( 1.000000000000000000, 0.0000000000000000000, 0.0000000000000000000 ) ) ;
#85 = MANIFOLD_SOLID_BREP ( 'Boss-Extrude1', #18 ) ;
#86 = APPLICATION_PROTOCOL_DEFINITION ( 'international standard', 'config_control_design', 1994, #76 ) ;
#87 =( NAMED_UNIT ( * ) PLANE_ANGLE_UNIT ( ) SI_UNIT ( $, .RADIAN. ) );
#88 = LOCAL_TIME ( 15, 58, 7.000000000000000000, #37 ) ;
#89 = AXIS2_PLACEMENT_3D ( 'NONE', #70, #6, #56 ) ;
#90 = EDGE_LOOP ( 'NONE', ( #53, #154 ) ) ;
#91 = COORDINATED_UNIVERSAL_TIME_OFFSET ( 5, 0, .BEHIND. ) ;
#92 = APPROVAL_STATUS ( 'not_yet_approved' ) ;
#93 = ORIENTED_EDGE ( 'NONE', *, *, #58, .T. ) ;
#94 = PRODUCT_DEFINITION_SHAPE ( 'NONE', 'NONE',  #33 ) ;
#95 = ORIENTED_EDGE ( 'NONE', *, *, #13, .T. ) ;
#96 = CIRCLE ( 'NONE', #81, 101.5999999999999900 ) ;
#97 = DIRECTION ( 'NONE',  ( -1.000000000000000000, 0.0000000000000000000, 0.0000000000000000000 ) ) ;
#98 = DATE_AND_TIME ( #166, #172 ) ;
#99 = AXIS2_PLACEMENT_3D ( 'NONE', #104, #8, #35 ) ;
#100 = APPLICATION_CONTEXT ( 'configuration controlled 3d designs of mechanical parts and assemblies' ) ;
#101 = PLANE ( 'NONE',  #159 ) ;
#102 = PRODUCT_RELATED_PRODUCT_CATEGORY ( 'detail', '', ( #4 ) ) ;
#103 = PERSON_AND_ORGANIZATION ( #16, #26 ) ;
#104 = CARTESIAN_POINT ( 'NONE',  ( 0.0000000000000000000, 0.0000000000000000000, 1.000000000000000000 ) ) ;
#105 = ADVANCED_BREP_SHAPE_REPRESENTATION ( 'Web Model 48859_63218', ( #85, #14 ), #137 ) ;
#106 = ORIENTED_EDGE ( 'NONE', *, *, #23, .T. ) ;
#107 = CALENDAR_DATE ( 2017, 1, 3 ) ;
#108 = APPROVAL_DATE_TIME ( #167, #123 ) ;
#109 = APPROVAL_ROLE ( '' ) ;
#110 = AXIS2_PLACEMENT_3D ( 'NONE', #119, #40, #153 ) ;
#111 = ORIENTED_EDGE ( 'NONE', *, *, #44, .T. ) ;
#112 = DIRECTION ( 'NONE',  ( 1.000000000000000000, 0.0000000000000000000, 0.0000000000000000000 ) ) ;
#113 = ADVANCED_FACE ( 'NONE', ( #140 ), #69, .T. ) ;
#114 = PERSON_AND_ORGANIZATION ( #16, #26 ) ;
#115 = CARTESIAN_POINT ( 'NONE',  ( -101.5999999999999900, 0.0000000000000000000, 1.000000000000000000 ) ) ;
#116 = CALENDAR_DATE ( 2017, 1, 3 ) ;
#117 = ORIENTED_EDGE ( 'NONE', *, *, #67, .T. ) ;
#118 = CARTESIAN_POINT ( 'NONE',  ( 0.0000000000000000000, 0.0000000000000000000, 0.0000000000000000000 ) ) ;
#119 = CARTESIAN_POINT ( 'NONE',  ( 0.0000000000000000000, 0.0000000000000000000, 1.000000000000000000 ) ) ;
#120 = AXIS2_PLACEMENT_3D ( 'NONE', #20, #171, #112 ) ;
#121 = PERSON_AND_ORGANIZATION_ROLE ( 'creator' ) ;
#122 = APPROVAL_ROLE ( '' ) ;
#123 = APPROVAL ( #66, 'UNSPECIFIED' ) ;
#124 = FACE_OUTER_BOUND ( 'NONE', #90, .T. ) ;
#125 = ORIENTED_EDGE ( 'NONE', *, *, #32, .T. ) ;
#126 = DIRECTION ( 'NONE',  ( -0.0000000000000000000, -0.0000000000000000000, -1.000000000000000000 ) ) ;
#127 = CARTESIAN_POINT ( 'NONE',  ( 0.0000000000000000000, 0.0000000000000000000, 1.000000000000000000 ) ) ;
#128 = ORIENTED_EDGE ( 'NONE', *, *, #67, .F. ) ;
#129 = AXIS2_PLACEMENT_3D ( 'NONE', #68, #55, #173 ) ;
#130 = APPLICATION_PROTOCOL_DEFINITION ( 'international standard', 'config_control_design', 1994, #100 ) ;
#131 = CARTESIAN_POINT ( 'NONE',  ( 0.0000000000000000000, 0.0000000000000000000, 0.0000000000000000000 ) ) ;
#132 = PLANE ( 'NONE',  #99 ) ;
#133 = CC_DESIGN_APPROVAL ( #123, ( #33 ) ) ;
#134 = ADVANCED_FACE ( 'NONE', ( #124 ), #101, .F. ) ;
#135 = FACE_OUTER_BOUND ( 'NONE', #158, .T. ) ;
#136 = COORDINATED_UNIVERSAL_TIME_OFFSET ( 5, 0, .BEHIND. ) ;
#137 =( GEOMETRIC_REPRESENTATION_CONTEXT ( 3 ) GLOBAL_UNCERTAINTY_ASSIGNED_CONTEXT ( ( #138 ) ) GLOBAL_UNIT_ASSIGNED_CONTEXT ( ( #162, #87, #144 ) ) REPRESENTATION_CONTEXT ( 'NONE', 'WORKASPACE' ) );
#138 = UNCERTAINTY_MEASURE_WITH_UNIT (LENGTH_MEASURE( 1.000000000000000100E-005 ), #162, 'distance_accuracy_value', 'NONE');
#139 = ORIENTED_EDGE ( 'NONE', *, *, #44, .F. ) ;
#140 = FACE_OUTER_BOUND ( 'NONE', #157, .T. ) ;
#141 = PERSON_AND_ORGANIZATION ( #16, #26 ) ;
#142 = CC_DESIGN_PERSON_AND_ORGANIZATION_ASSIGNMENT ( #80, #31, ( #33 ) ) ;
#143 = ORIENTED_EDGE ( 'NONE', *, *, #23, .F. ) ;
#144 =( NAMED_UNIT ( * ) SI_UNIT ( $, .STERADIAN. ) SOLID_ANGLE_UNIT ( ) );
#145 = PERSON_AND_ORGANIZATION ( #16, #26 ) ;
#146 = DATE_AND_TIME ( #168, #36 ) ;
#147 = VERTEX_POINT ( 'NONE', #25 ) ;
#148 = APPROVAL_ROLE ( '' ) ;
#149 = CC_DESIGN_DATE_AND_TIME_ASSIGNMENT ( #22, #50, ( #33 ) ) ;
#150 = DIRECTION ( 'NONE',  ( -0.0000000000000000000, -0.0000000000000000000, -1.000000000000000000 ) ) ;
#151 = DIRECTION ( 'NONE',  ( -0.0000000000000000000, -0.0000000000000000000, -1.000000000000000000 ) ) ;
#152 = AXIS2_PLACEMENT_3D ( 'NONE', #127, #151, #97 ) ;
#153 = DIRECTION ( 'NONE',  ( 1.000000000000000000, 0.0000000000000000000, 0.0000000000000000000 ) ) ;
#154 = ORIENTED_EDGE ( 'NONE', *, *, #32, .F. ) ;
#155 = PRODUCT_DEFINITION_FORMATION_WITH_SPECIFIED_SOURCE ( 'ANY', '', #4, .NOT_KNOWN. ) ;
#156 = VECTOR ( 'NONE', #150, 1000.000000000000000 ) ;
#157 = EDGE_LOOP ( 'NONE', ( #64, #128, #106, #95 ) ) ;
#158 = EDGE_LOOP ( 'NONE', ( #139, #93, #125, #143 ) ) ;
#159 = AXIS2_PLACEMENT_3D ( 'NONE', #131, #59, #78 ) ;
#160 = VERTEX_POINT ( 'NONE', #61 ) ;
#161 = APPROVAL ( #5, 'UNSPECIFIED' ) ;
#162 =( LENGTH_UNIT ( ) NAMED_UNIT ( * ) SI_UNIT ( .MILLI., .METRE. ) );
#163 = VERTEX_POINT ( 'NONE', #75 ) ;
#164 = MECHANICAL_CONTEXT ( 'NONE', #100, 'mechanical' ) ;
#165 = LOCAL_TIME ( 15, 58, 7.000000000000000000, #136 ) ;
#166 = CALENDAR_DATE ( 2017, 1, 3 ) ;
#167 = DATE_AND_TIME ( #116, #165 ) ;
#168 = CALENDAR_DATE ( 2017, 1, 3 ) ;
#169 = CC_DESIGN_APPROVAL ( #161, ( #155 ) ) ;
#170 = FACE_OUTER_BOUND ( 'NONE', #48, .T. ) ;
#171 = DIRECTION ( 'NONE',  ( 0.0000000000000000000, 0.0000000000000000000, 1.000000000000000000 ) ) ;
#172 = LOCAL_TIME ( 15, 58, 7.000000000000000000, #71 ) ;
#173 = DIRECTION ( 'NONE',  ( -1.000000000000000000, 0.0000000000000000000, 0.0000000000000000000 ) ) ;
#174 = VERTEX_POINT ( 'NONE', #11 ) ;
#175 = PERSON_AND_ORGANIZATION ( #16, #26 ) ;
ENDSEC;
END-ISO-10303-21;
