ISO-10303-21;
HEADER;
FILE_DESCRIPTION (( 'STEP AP214' ),
    '1' );
FILE_NAME ('4889-E0W.STEP',
    '2009-12-21T17:10:20',
    ( ' ' ),
    ( ' ' ),
    'SwSTEP 2.0',
    'SolidWorks 2009',
    '' );
FILE_SCHEMA (( 'AUTOMOTIVE_DESIGN' ));
ENDSEC;

DATA;
#1 =( GEOMETRIC_REPRESENTATION_CONTEXT ( 3 ) GLOBAL_UNCERTAINTY_ASSIGNED_CONTEXT ( ( #26 ) ) GLOBAL_UNIT_ASSIGNED_CONTEXT ( ( #86, #59, #58 ) ) REPRESENTATION_CONTEXT ( 'NONE', 'WORKASPACE' ) );
#2 = ADVANCED_BREP_SHAPE_REPRESENTATION ( '4889-E0W', ( #208, #112 ), #1 ) ;
#3 = COLOUR_RGB ( '',0.7960784313725489700, 0.8235294117647058400, 0.9372549019607843100 ) ;
#4 = SURFACE_STYLE_USAGE ( .BOTH. , #5 ) ;
#5 = SURFACE_SIDE_STYLE ('',( #6 ) ) ;
#6 = SURFACE_STYLE_FILL_AREA ( #7 ) ;
#7 = FILL_AREA_STYLE ('',( #8 ) ) ;
#8 = FILL_AREA_STYLE_COLOUR ( '', #3 ) ;
#9 =( LENGTH_UNIT ( ) NAMED_UNIT ( * ) SI_UNIT ( .MILLI., .METRE. ) );
#10 = STYLED_ITEM ( 'NONE', ( #11 ), #2 ) ;
#11 = PRESENTATION_STYLE_ASSIGNMENT (( #4 ) ) ;
#12 = MECHANICAL_DESIGN_GEOMETRIC_PRESENTATION_REPRESENTATION (  '', ( #10 ), #17 ) ;
#13 = PRESENTATION_LAYER_ASSIGNMENT (  '', '', ( #10 ) ) ;
#14 =( NAMED_UNIT ( * ) SI_UNIT ( $, .STERADIAN. ) SOLID_ANGLE_UNIT ( ) );
#15 =( NAMED_UNIT ( * ) PLANE_ANGLE_UNIT ( ) SI_UNIT ( $, .RADIAN. ) );
#16 = UNCERTAINTY_MEASURE_WITH_UNIT (LENGTH_MEASURE( 1.000000000000000100E-005 ), #9, 'distance_accuracy_value', 'NONE');
#17 =( GEOMETRIC_REPRESENTATION_CONTEXT ( 3 ) GLOBAL_UNCERTAINTY_ASSIGNED_CONTEXT ( ( #16 ) ) GLOBAL_UNIT_ASSIGNED_CONTEXT ( ( #9, #15, #14 ) ) REPRESENTATION_CONTEXT ( 'NONE', 'WORKASPACE' ) );
#18 =( NAMED_UNIT ( * ) SI_UNIT ( $, .STERADIAN. ) SOLID_ANGLE_UNIT ( ) );
#19 = PRESENTATION_STYLE_ASSIGNMENT (( #62 ) ) ;
#20 =( NAMED_UNIT ( * ) PLANE_ANGLE_UNIT ( ) SI_UNIT ( $, .RADIAN. ) );
#21 = AXIS2_PLACEMENT_3D ( 'NONE', #41, #80, #79 ) ;
#22 =( LENGTH_UNIT ( ) NAMED_UNIT ( * ) SI_UNIT ( .MILLI., .METRE. ) );
#23 = MECHANICAL_DESIGN_GEOMETRIC_PRESENTATION_REPRESENTATION (  '', ( #25 ), #93 ) ;
#24 = PRESENTATION_LAYER_ASSIGNMENT (  '', '', ( #25 ) ) ;
#25 = STYLED_ITEM ( 'NONE', ( #100 ), #208 ) ;
#26 = UNCERTAINTY_MEASURE_WITH_UNIT (LENGTH_MEASURE( 1.000000000000000100E-005 ), #86, 'distance_accuracy_value', 'NONE');
#27 =( NAMED_UNIT ( * ) SI_UNIT ( $, .STERADIAN. ) SOLID_ANGLE_UNIT ( ) );
#28 = FILL_AREA_STYLE_COLOUR ( '', #29 ) ;
#29 = COLOUR_RGB ( '',0.7960784313725489700, 0.8235294117647058400, 0.9372549019607843100 ) ;
#30 = CARTESIAN_POINT ( 'NONE',  ( -12.70000000000000600, 1.555250069354419900E-015, -2.455868924448944200 ) ) ;
#31 = AXIS2_PLACEMENT_3D ( 'NONE', #98, #64, #56 ) ;
#32 =( GEOMETRIC_REPRESENTATION_CONTEXT ( 3 ) GLOBAL_UNCERTAINTY_ASSIGNED_CONTEXT ( ( #90 ) ) GLOBAL_UNIT_ASSIGNED_CONTEXT ( ( #22, #37, #18 ) ) REPRESENTATION_CONTEXT ( 'NONE', 'WORKASPACE' ) );
#33 = LINE ( 'NONE', #74, #73 ) ;
#34 = CARTESIAN_POINT ( 'NONE',  ( 12.70000000000000100, 0.0000000000000000000, 1.646140624853116300 ) ) ;
#35 = UNCERTAINTY_MEASURE_WITH_UNIT (LENGTH_MEASURE( 1.000000000000000100E-005 ), #63, 'distance_accuracy_value', 'NONE');
#36 = SURFACE_SIDE_STYLE ('',( #46 ) ) ;
#37 =( NAMED_UNIT ( * ) PLANE_ANGLE_UNIT ( ) SI_UNIT ( $, .RADIAN. ) );
#38 = DIRECTION ( 'NONE',  ( 1.000000000000000000, 0.0000000000000000000, 0.0000000000000000000 ) ) ;
#39 = DIRECTION ( 'NONE',  ( -0.0000000000000000000, -0.0000000000000000000, 1.000000000000000000 ) ) ;
#40 = CARTESIAN_POINT ( 'NONE',  ( 0.0000000000000000000, 0.0000000000000000000, 1.646140624853116300 ) ) ;
#41 = CARTESIAN_POINT ( 'NONE',  ( 0.0000000000000000000, 0.0000000000000000000, -97.54413107555106400 ) ) ;
#42 = DIRECTION ( 'NONE',  ( -0.0000000000000000000, -0.0000000000000000000, 1.000000000000000000 ) ) ;
#43 = VECTOR ( 'NONE', #42, 1000.000000000000000 ) ;
#44 = CARTESIAN_POINT ( 'NONE',  ( -12.70000000000000300, 1.555250069354419500E-015, 9.860972679289998800 ) ) ;
#45 = LINE ( 'NONE', #44, #43 ) ;
#46 = SURFACE_STYLE_FILL_AREA ( #66 ) ;
#47 = DIRECTION ( 'NONE',  ( 1.000000000000000000, 0.0000000000000000000, 0.0000000000000000000 ) ) ;
#48 = FILL_AREA_STYLE_COLOUR ( '', #67 ) ;
#49 = SURFACE_STYLE_USAGE ( .BOTH. , #50 ) ;
#50 = SURFACE_SIDE_STYLE ('',( #51 ) ) ;
#51 = SURFACE_STYLE_FILL_AREA ( #52 ) ;
#52 = FILL_AREA_STYLE ('',( #53 ) ) ;
#53 = FILL_AREA_STYLE_COLOUR ( '', #54 ) ;
#54 = COLOUR_RGB ( '',0.9568627450980391500, 0.9490196078431372100, 0.9607843137254902200 ) ;
#55 = FACE_OUTER_BOUND ( 'NONE', #166, .T. ) ;
#56 = DIRECTION ( 'NONE',  ( 1.000000000000000000, 0.0000000000000000000, 0.0000000000000000000 ) ) ;
#57 =( NAMED_UNIT ( * ) SI_UNIT ( $, .STERADIAN. ) SOLID_ANGLE_UNIT ( ) );
#58 =( NAMED_UNIT ( * ) SI_UNIT ( $, .STERADIAN. ) SOLID_ANGLE_UNIT ( ) );
#59 =( NAMED_UNIT ( * ) PLANE_ANGLE_UNIT ( ) SI_UNIT ( $, .RADIAN. ) );
#60 = SPHERICAL_SURFACE ( 'NONE', #85, 43.14000000000000100 ) ;
#61 =( GEOMETRIC_REPRESENTATION_CONTEXT ( 3 ) GLOBAL_UNCERTAINTY_ASSIGNED_CONTEXT ( ( #82 ) ) GLOBAL_UNIT_ASSIGNED_CONTEXT ( ( #97, #96, #27 ) ) REPRESENTATION_CONTEXT ( 'NONE', 'WORKASPACE' ) );
#62 = SURFACE_STYLE_USAGE ( .BOTH. , #36 ) ;
#63 =( LENGTH_UNIT ( ) NAMED_UNIT ( * ) SI_UNIT ( .MILLI., .METRE. ) );
#64 = DIRECTION ( 'NONE',  ( -0.0000000000000000000, -0.0000000000000000000, 1.000000000000000000 ) ) ;
#65 = PRESENTATION_LAYER_ASSIGNMENT (  '', '', ( #88 ) ) ;
#66 = FILL_AREA_STYLE ('',( #48 ) ) ;
#67 = COLOUR_RGB ( '',0.9568627450980391500, 0.9490196078431372100, 0.9607843137254902200 ) ;
#68 = MECHANICAL_DESIGN_GEOMETRIC_PRESENTATION_REPRESENTATION (  '', ( #70 ), #61 ) ;
#69 = PRESENTATION_LAYER_ASSIGNMENT (  '', '', ( #70 ) ) ;
#70 = STYLED_ITEM ( 'NONE', ( #71 ), #225 ) ;
#71 = PRESENTATION_STYLE_ASSIGNMENT (( #49 ) ) ;
#72 = DIRECTION ( 'NONE',  ( -0.0000000000000000000, -0.0000000000000000000, 1.000000000000000000 ) ) ;
#73 = VECTOR ( 'NONE', #72, 1000.000000000000000 ) ;
#74 = CARTESIAN_POINT ( 'NONE',  ( 12.70000000000000300, 0.0000000000000000000, 9.860972679289998800 ) ) ;
#75 = DIRECTION ( 'NONE',  ( -0.0000000000000000000, -0.0000000000000000000, 1.000000000000000000 ) ) ;
#76 = CARTESIAN_POINT ( 'NONE',  ( 0.0000000000000000000, 0.0000000000000000000, -2.455868924448944200 ) ) ;
#77 = AXIS2_PLACEMENT_3D ( 'NONE', #76, #75, #47 ) ;
#78 = CIRCLE ( 'NONE', #77, 12.70000000000000500 ) ;
#79 = DIRECTION ( 'NONE',  ( 0.0000000000000000000, 1.000000000000000000, 0.0000000000000000000 ) ) ;
#80 = DIRECTION ( 'NONE',  ( -1.000000000000000000, 0.0000000000000000000, 0.0000000000000000000 ) ) ;
#81 = FACE_OUTER_BOUND ( 'NONE', #186, .T. ) ;
#82 = UNCERTAINTY_MEASURE_WITH_UNIT (LENGTH_MEASURE( 1.000000000000000100E-005 ), #97, 'distance_accuracy_value', 'NONE');
#83 = DIRECTION ( 'NONE',  ( -1.000000000000000000, 0.0000000000000000000, 0.0000000000000000000 ) ) ;
#84 = CARTESIAN_POINT ( 'NONE',  ( 0.0000000000000000000, 0.0000000000000000000, -43.68413107555106500 ) ) ;
#85 = AXIS2_PLACEMENT_3D ( 'NONE', #84, #83, #87 ) ;
#86 =( LENGTH_UNIT ( ) NAMED_UNIT ( * ) SI_UNIT ( .MILLI., .METRE. ) );
#87 = DIRECTION ( 'NONE',  ( 0.0000000000000000000, 1.000000000000000000, 0.0000000000000000000 ) ) ;
#88 = STYLED_ITEM ( 'NONE', ( #19 ), #185 ) ;
#89 = CIRCLE ( 'NONE', #31, 12.70000000000000500 ) ;
#90 = UNCERTAINTY_MEASURE_WITH_UNIT (LENGTH_MEASURE( 1.000000000000000100E-005 ), #22, 'distance_accuracy_value', 'NONE');
#91 = MECHANICAL_DESIGN_GEOMETRIC_PRESENTATION_REPRESENTATION (  '', ( #88 ), #32 ) ;
#92 = CARTESIAN_POINT ( 'NONE',  ( -12.70000000000000100, 1.555250069354419300E-015, 1.646140624853116300 ) ) ;
#93 =( GEOMETRIC_REPRESENTATION_CONTEXT ( 3 ) GLOBAL_UNCERTAINTY_ASSIGNED_CONTEXT ( ( #35 ) ) GLOBAL_UNIT_ASSIGNED_CONTEXT ( ( #63, #20, #57 ) ) REPRESENTATION_CONTEXT ( 'NONE', 'WORKASPACE' ) );
#94 = AXIS2_PLACEMENT_3D ( 'NONE', #40, #39, #38 ) ;
#95 = CIRCLE ( 'NONE', #94, 12.70000000000000100 ) ;
#96 =( NAMED_UNIT ( * ) PLANE_ANGLE_UNIT ( ) SI_UNIT ( $, .RADIAN. ) );
#97 =( LENGTH_UNIT ( ) NAMED_UNIT ( * ) SI_UNIT ( .MILLI., .METRE. ) );
#98 = CARTESIAN_POINT ( 'NONE',  ( 0.0000000000000000000, 0.0000000000000000000, -2.455868924448944200 ) ) ;
#99 = SPHERICAL_SURFACE ( 'NONE', #21, 100.0000000000000000 ) ;
#100 = PRESENTATION_STYLE_ASSIGNMENT (( #101 ) ) ;
#101 = SURFACE_STYLE_USAGE ( .BOTH. , #102 ) ;
#102 = SURFACE_SIDE_STYLE ('',( #103 ) ) ;
#103 = SURFACE_STYLE_FILL_AREA ( #104 ) ;
#104 = FILL_AREA_STYLE ('',( #28 ) ) ;
#105 = SHAPE_DEFINITION_REPRESENTATION ( #107, #2 ) ;
#106 = APPLICATION_CONTEXT ( 'automotive_design' ) ;
#107 = PRODUCT_DEFINITION_SHAPE ( 'NONE', 'NONE',  #110 ) ;
#108 = PRODUCT_RELATED_PRODUCT_CATEGORY ( 'part', '', ( #119 ) ) ;
#109 = PRODUCT_DEFINITION_FORMATION_WITH_SPECIFIED_SOURCE ( 'ANY', '', #119, .NOT_KNOWN. ) ;
#110 = PRODUCT_DEFINITION ( 'UNKNOWN', '', #109, #116 ) ;
#111 = CARTESIAN_POINT ( 'NONE',  ( 0.0000000000000000000, 0.0000000000000000000, 0.0000000000000000000 ) ) ;
#112 = AXIS2_PLACEMENT_3D ( 'NONE', #111, #115, #120 ) ;
#113 = PRODUCT_CONTEXT ( 'NONE', #106, 'mechanical' ) ;
#114 = APPLICATION_PROTOCOL_DEFINITION ( 'draft international standard', 'automotive_design', 1998, #106 ) ;
#115 = DIRECTION ( 'NONE',  ( 0.0000000000000000000, 0.0000000000000000000, 1.000000000000000000 ) ) ;
#116 = PRODUCT_DEFINITION_CONTEXT ( 'detailed design', #118, 'design' ) ;
#117 = APPLICATION_PROTOCOL_DEFINITION ( 'draft international standard', 'automotive_design', 1998, #118 ) ;
#118 = APPLICATION_CONTEXT ( 'automotive_design' ) ;
#119 = PRODUCT ( '4889-E0W', '4889-E0W', '', ( #113 ) ) ;
#120 = DIRECTION ( 'NONE',  ( 1.000000000000000000, 0.0000000000000000000, 0.0000000000000000000 ) ) ;
#121 = ADVANCED_FACE ( 'NONE', ( #239 ), #226, .T. ) ;
#122 = ORIENTED_EDGE ( 'NONE', *, *, #194, .F. ) ;
#123 = ADVANCED_FACE ( 'NONE', ( #231 ), #206, .T. ) ;
#124 = VERTEX_POINT ( 'NONE', #222 ) ;
#125 = ORIENTED_EDGE ( 'NONE', *, *, #147, .F. ) ;
#126 = EDGE_LOOP ( 'NONE', ( #141, #125, #146, #149 ) ) ;
#127 = ORIENTED_EDGE ( 'NONE', *, *, #147, .T. ) ;
#128 = ORIENTED_EDGE ( 'NONE', *, *, #135, .T. ) ;
#129 = EDGE_CURVE ( 'NONE', #142, #189, #214, .T. ) ;
#130 = ORIENTED_EDGE ( 'NONE', *, *, #135, .F. ) ;
#131 = EDGE_LOOP ( 'NONE', ( #122, #127, #152, #133, #148, #130 ) ) ;
#132 = VERTEX_POINT ( 'NONE', #307 ) ;
#133 = ORIENTED_EDGE ( 'NONE', *, *, #187, .T. ) ;
#134 = ORIENTED_EDGE ( 'NONE', *, *, #182, .T. ) ;
#135 = EDGE_CURVE ( 'NONE', #183, #142, #251, .T. ) ;
#136 = EDGE_CURVE ( 'NONE', #142, #132, #266, .T. ) ;
#137 = CLOSED_SHELL ( 'NONE', ( #225, #179, #185, #121, #123, #139 ) ) ;
#138 = ORIENTED_EDGE ( 'NONE', *, *, #151, .F. ) ;
#139 = ADVANCED_FACE ( 'NONE', ( #294 ), #279, .F. ) ;
#140 = ORIENTED_EDGE ( 'NONE', *, *, #136, .T. ) ;
#141 = ORIENTED_EDGE ( 'NONE', *, *, #159, .F. ) ;
#142 = VERTEX_POINT ( 'NONE', #269 ) ;
#143 = ORIENTED_EDGE ( 'NONE', *, *, #151, .T. ) ;
#144 = EDGE_LOOP ( 'NONE', ( #150, #178, #145, #143 ) ) ;
#145 = ORIENTED_EDGE ( 'NONE', *, *, #190, .T. ) ;
#146 = ORIENTED_EDGE ( 'NONE', *, *, #193, .F. ) ;
#147 = EDGE_CURVE ( 'NONE', #195, #164, #264, .T. ) ;
#148 = ORIENTED_EDGE ( 'NONE', *, *, #129, .F. ) ;
#149 = ORIENTED_EDGE ( 'NONE', *, *, #155, .T. ) ;
#150 = ORIENTED_EDGE ( 'NONE', *, *, #136, .F. ) ;
#151 = EDGE_CURVE ( 'NONE', #180, #132, #299, .T. ) ;
#152 = ORIENTED_EDGE ( 'NONE', *, *, #174, .T. ) ;
#153 =( NAMED_UNIT ( * ) SI_UNIT ( $, .STERADIAN. ) SOLID_ANGLE_UNIT ( ) );
#154 = ORIENTED_EDGE ( 'NONE', *, *, #184, .F. ) ;
#155 = EDGE_CURVE ( 'NONE', #124, #158, #283, .T. ) ;
#156 = VERTEX_POINT ( 'NONE', #284 ) ;
#157 = AXIS2_PLACEMENT_3D ( 'NONE', #173, #163, #171 ) ;
#158 = VERTEX_POINT ( 'NONE', #243 ) ;
#159 = EDGE_CURVE ( 'NONE', #164, #158, #289, .T. ) ;
#160 = CARTESIAN_POINT ( 'NONE',  ( 0.0000000000000000000, 0.0000000000000000000, 1.646140624853116300 ) ) ;
#161 = ORIENTED_EDGE ( 'NONE', *, *, #155, .F. ) ;
#162 =( NAMED_UNIT ( * ) PLANE_ANGLE_UNIT ( ) SI_UNIT ( $, .RADIAN. ) );
#163 = DIRECTION ( 'NONE',  ( -0.0000000000000000000, -0.0000000000000000000, 1.000000000000000000 ) ) ;
#164 = VERTEX_POINT ( 'NONE', #290 ) ;
#165 = DIRECTION ( 'NONE',  ( 1.000000000000000000, 0.0000000000000000000, 0.0000000000000000000 ) ) ;
#166 = EDGE_LOOP ( 'NONE', ( #167, #168, #161, #154 ) ) ;
#167 = ORIENTED_EDGE ( 'NONE', *, *, #174, .F. ) ;
#168 = ORIENTED_EDGE ( 'NONE', *, *, #159, .T. ) ;
#169 = AXIS2_PLACEMENT_3D ( 'NONE', #160, #172, #170 ) ;
#170 = DIRECTION ( 'NONE',  ( 1.000000000000000000, 0.0000000000000000000, 0.0000000000000000000 ) ) ;
#171 = DIRECTION ( 'NONE',  ( 1.000000000000000000, 0.0000000000000000000, 0.0000000000000000000 ) ) ;
#172 = DIRECTION ( 'NONE',  ( -0.0000000000000000000, -0.0000000000000000000, 1.000000000000000000 ) ) ;
#173 = CARTESIAN_POINT ( 'NONE',  ( 0.0000000000000000000, 0.0000000000000000000, 1.646140624853116300 ) ) ;
#174 = EDGE_CURVE ( 'NONE', #164, #156, #260, .T. ) ;
#175 = ORIENTED_EDGE ( 'NONE', *, *, #193, .T. ) ;
#176 = ORIENTED_EDGE ( 'NONE', *, *, #190, .F. ) ;
#177 = ORIENTED_EDGE ( 'NONE', *, *, #184, .T. ) ;
#178 = ORIENTED_EDGE ( 'NONE', *, *, #129, .T. ) ;
#179 = ADVANCED_FACE ( 'NONE', ( #275 ), #319, .T. ) ;
#180 = VERTEX_POINT ( 'NONE', #322 ) ;
#181 = ORIENTED_EDGE ( 'NONE', *, *, #182, .F. ) ;
#182 = EDGE_CURVE ( 'NONE', #180, #183, #321, .T. ) ;
#183 = VERTEX_POINT ( 'NONE', #92 ) ;
#184 = EDGE_CURVE ( 'NONE', #156, #124, #89, .T. ) ;
#185 = ADVANCED_FACE ( 'NONE', ( #81 ), #99, .T. ) ;
#186 = EDGE_LOOP ( 'NONE', ( #134, #128, #140, #138 ) ) ;
#187 = EDGE_CURVE ( 'NONE', #156, #189, #33, .T. ) ;
#188 = ORIENTED_EDGE ( 'NONE', *, *, #187, .F. ) ;
#189 = VERTEX_POINT ( 'NONE', #34 ) ;
#190 = EDGE_CURVE ( 'NONE', #189, #180, #95, .T. ) ;
#191 = EDGE_LOOP ( 'NONE', ( #177, #175, #192, #181, #176, #188 ) ) ;
#192 = ORIENTED_EDGE ( 'NONE', *, *, #194, .T. ) ;
#193 = EDGE_CURVE ( 'NONE', #124, #195, #78, .T. ) ;
#194 = EDGE_CURVE ( 'NONE', #195, #183, #45, .T. ) ;
#195 = VERTEX_POINT ( 'NONE', #30 ) ;
#196 =( NAMED_UNIT ( * ) PLANE_ANGLE_UNIT ( ) SI_UNIT ( $, .RADIAN. ) );
#197 = MECHANICAL_DESIGN_GEOMETRIC_PRESENTATION_REPRESENTATION (  '', ( #242 ), #202 ) ;
#198 = FILL_AREA_STYLE ('',( #224 ) ) ;
#199 =( LENGTH_UNIT ( ) NAMED_UNIT ( * ) SI_UNIT ( .MILLI., .METRE. ) );
#200 = PRESENTATION_LAYER_ASSIGNMENT (  '', '', ( #242 ) ) ;
#201 = SURFACE_STYLE_USAGE ( .BOTH. , #203 ) ;
#202 =( GEOMETRIC_REPRESENTATION_CONTEXT ( 3 ) GLOBAL_UNCERTAINTY_ASSIGNED_CONTEXT ( ( #219 ) ) GLOBAL_UNIT_ASSIGNED_CONTEXT ( ( #199, #196, #216 ) ) REPRESENTATION_CONTEXT ( 'NONE', 'WORKASPACE' ) );
#203 = SURFACE_SIDE_STYLE ('',( #204 ) ) ;
#204 = SURFACE_STYLE_FILL_AREA ( #198 ) ;
#205 =( NAMED_UNIT ( * ) PLANE_ANGLE_UNIT ( ) SI_UNIT ( $, .RADIAN. ) );
#206 = CYLINDRICAL_SURFACE ( 'NONE', #221, 12.70000000000000300 ) ;
#207 =( GEOMETRIC_REPRESENTATION_CONTEXT ( 3 ) GLOBAL_UNCERTAINTY_ASSIGNED_CONTEXT ( ( #240 ) ) GLOBAL_UNIT_ASSIGNED_CONTEXT ( ( #209, #205, #241 ) ) REPRESENTATION_CONTEXT ( 'NONE', 'WORKASPACE' ) );
#208 = MANIFOLD_SOLID_BREP ( 'NONE', #137 ) ;
#209 =( LENGTH_UNIT ( ) NAMED_UNIT ( * ) SI_UNIT ( .MILLI., .METRE. ) );
#210 = MECHANICAL_DESIGN_GEOMETRIC_PRESENTATION_REPRESENTATION (  '', ( #235 ), #207 ) ;
#211 = DIRECTION ( 'NONE',  ( 1.000000000000000000, 0.0000000000000000000, 0.0000000000000000000 ) ) ;
#212 = DIRECTION ( 'NONE',  ( -0.0000000000000000000, -0.0000000000000000000, 1.000000000000000000 ) ) ;
#213 = CARTESIAN_POINT ( 'NONE',  ( 0.0000000000000000000, 0.0000000000000000000, 9.860972679289998800 ) ) ;
#214 = CIRCLE ( 'NONE', #169, 12.70000000000000100 ) ;
#215 = UNCERTAINTY_MEASURE_WITH_UNIT (LENGTH_MEASURE( 1.000000000000000100E-005 ), #310, 'distance_accuracy_value', 'NONE');
#216 =( NAMED_UNIT ( * ) SI_UNIT ( $, .STERADIAN. ) SOLID_ANGLE_UNIT ( ) );
#217 = CARTESIAN_POINT ( 'NONE',  ( 0.0000000000000000000, 0.0000000000000000000, -97.54413107555106400 ) ) ;
#218 = AXIS2_PLACEMENT_3D ( 'NONE', #217, #233, #232 ) ;
#219 = UNCERTAINTY_MEASURE_WITH_UNIT (LENGTH_MEASURE( 1.000000000000000100E-005 ), #199, 'distance_accuracy_value', 'NONE');
#220 = COLOUR_RGB ( '',0.9568627450980391500, 0.9490196078431372100, 0.9607843137254902200 ) ;
#221 = AXIS2_PLACEMENT_3D ( 'NONE', #213, #212, #211 ) ;
#222 = CARTESIAN_POINT ( 'NONE',  ( 0.0000000000000000000, 12.70000000000001000, -2.455868924448946000 ) ) ;
#223 = PRESENTATION_STYLE_ASSIGNMENT (( #201 ) ) ;
#224 = FILL_AREA_STYLE_COLOUR ( '', #220 ) ;
#225 = ADVANCED_FACE ( 'NONE', ( #55 ), #60, .F. ) ;
#226 = SPHERICAL_SURFACE ( 'NONE', #218, 100.0000000000000000 ) ;
#227 = SURFACE_STYLE_FILL_AREA ( #228 ) ;
#228 = FILL_AREA_STYLE ('',( #229 ) ) ;
#229 = FILL_AREA_STYLE_COLOUR ( '', #230 ) ;
#230 = COLOUR_RGB ( '',0.9568627450980391500, 0.9490196078431372100, 0.9607843137254902200 ) ;
#231 = FACE_OUTER_BOUND ( 'NONE', #131, .T. ) ;
#232 = DIRECTION ( 'NONE',  ( 0.0000000000000000000, 1.000000000000000000, 0.0000000000000000000 ) ) ;
#233 = DIRECTION ( 'NONE',  ( -1.000000000000000000, 0.0000000000000000000, 0.0000000000000000000 ) ) ;
#234 = PRESENTATION_LAYER_ASSIGNMENT (  '', '', ( #235 ) ) ;
#235 = STYLED_ITEM ( 'NONE', ( #236 ), #123 ) ;
#236 = PRESENTATION_STYLE_ASSIGNMENT (( #237 ) ) ;
#237 = SURFACE_STYLE_USAGE ( .BOTH. , #238 ) ;
#238 = SURFACE_SIDE_STYLE ('',( #227 ) ) ;
#239 = FACE_OUTER_BOUND ( 'NONE', #144, .T. ) ;
#240 = UNCERTAINTY_MEASURE_WITH_UNIT (LENGTH_MEASURE( 1.000000000000000100E-005 ), #209, 'distance_accuracy_value', 'NONE');
#241 =( NAMED_UNIT ( * ) SI_UNIT ( $, .STERADIAN. ) SOLID_ANGLE_UNIT ( ) );
#242 = STYLED_ITEM ( 'NONE', ( #223 ), #121 ) ;
#243 = CARTESIAN_POINT ( 'NONE',  ( 0.0000000000000000000, 2.641475905194867600E-015, -0.5441310755510686500 ) ) ;
#244 = STYLED_ITEM ( 'NONE', ( #309 ), #139 ) ;
#245 = AXIS2_PLACEMENT_3D ( 'NONE', #268, #267, #248 ) ;
#246 = SURFACE_STYLE_USAGE ( .BOTH. , #293 ) ;
#247 = CARTESIAN_POINT ( 'NONE',  ( 0.0000000000000000000, 0.0000000000000000000, 1.646140624853116300 ) ) ;
#248 = DIRECTION ( 'NONE',  ( 0.0000000000000000000, 1.000000000000000000, 0.0000000000000000000 ) ) ;
#249 =( GEOMETRIC_REPRESENTATION_CONTEXT ( 3 ) GLOBAL_UNCERTAINTY_ASSIGNED_CONTEXT ( ( #292 ) ) GLOBAL_UNIT_ASSIGNED_CONTEXT ( ( #308, #295, #302 ) ) REPRESENTATION_CONTEXT ( 'NONE', 'WORKASPACE' ) );
#250 = FILL_AREA_STYLE ('',( #296 ) ) ;
#251 = CIRCLE ( 'NONE', #303, 12.70000000000000100 ) ;
#252 = CARTESIAN_POINT ( 'NONE',  ( 0.0000000000000000000, 0.0000000000000000000, -97.54413107555106400 ) ) ;
#253 = DIRECTION ( 'NONE',  ( -1.000000000000000000, 1.224606353822377300E-016, 0.0000000000000000000 ) ) ;
#254 = PRESENTATION_LAYER_ASSIGNMENT (  '', '', ( #244 ) ) ;
#255 = DIRECTION ( 'NONE',  ( 1.000000000000000000, 0.0000000000000000000, 0.0000000000000000000 ) ) ;
#256 = DIRECTION ( 'NONE',  ( -0.0000000000000000000, -0.0000000000000000000, 1.000000000000000000 ) ) ;
#257 = DIRECTION ( 'NONE',  ( -0.0000000000000000000, -0.0000000000000000000, 1.000000000000000000 ) ) ;
#258 = COLOUR_RGB ( '',0.9568627450980391500, 0.9490196078431372100, 0.9607843137254902200 ) ;
#259 = CARTESIAN_POINT ( 'NONE',  ( 0.0000000000000000000, 0.0000000000000000000, -2.455868924448944200 ) ) ;
#260 = CIRCLE ( 'NONE', #278, 12.70000000000000500 ) ;
#261 = FILL_AREA_STYLE_COLOUR ( '', #274 ) ;
#262 = CARTESIAN_POINT ( 'NONE',  ( 0.0000000000000000000, 0.0000000000000000000, -2.455868924448944200 ) ) ;
#263 = AXIS2_PLACEMENT_3D ( 'NONE', #262, #256, #255 ) ;
#264 = CIRCLE ( 'NONE', #263, 12.70000000000000500 ) ;
#265 = DIRECTION ( 'NONE',  ( 1.000000000000000000, 0.0000000000000000000, 0.0000000000000000000 ) ) ;
#266 = CIRCLE ( 'NONE', #300, 100.0000000000000000 ) ;
#267 = DIRECTION ( 'NONE',  ( -1.000000000000000000, 0.0000000000000000000, 0.0000000000000000000 ) ) ;
#268 = CARTESIAN_POINT ( 'NONE',  ( 0.0000000000000000000, 0.0000000000000000000, -43.68413107555106500 ) ) ;
#269 = CARTESIAN_POINT ( 'NONE',  ( -1.555250069354418500E-015, -12.69999999999999200, 1.646140624853117200 ) ) ;
#270 = MECHANICAL_DESIGN_GEOMETRIC_PRESENTATION_REPRESENTATION (  '', ( #244 ), #249 ) ;
#271 = SURFACE_SIDE_STYLE ('',( #272 ) ) ;
#272 = SURFACE_STYLE_FILL_AREA ( #273 ) ;
#273 = FILL_AREA_STYLE ('',( #261 ) ) ;
#274 = COLOUR_RGB ( '',0.9568627450980391500, 0.9490196078431372100, 0.9607843137254902200 ) ;
#275 = FACE_OUTER_BOUND ( 'NONE', #191, .T. ) ;
#276 = DIRECTION ( 'NONE',  ( 1.000000000000000000, 0.0000000000000000000, 0.0000000000000000000 ) ) ;
#277 = DIRECTION ( 'NONE',  ( -0.0000000000000000000, -0.0000000000000000000, 1.000000000000000000 ) ) ;
#278 = AXIS2_PLACEMENT_3D ( 'NONE', #259, #277, #276 ) ;
#279 = SPHERICAL_SURFACE ( 'NONE', #245, 43.14000000000000100 ) ;
#280 = DIRECTION ( 'NONE',  ( 0.0000000000000000000, 0.0000000000000000000, -1.000000000000000000 ) ) ;
#281 = DIRECTION ( 'NONE',  ( 1.000000000000000000, -0.0000000000000000000, 0.0000000000000000000 ) ) ;
#282 = AXIS2_PLACEMENT_3D ( 'NONE', #304, #281, #280 ) ;
#283 = CIRCLE ( 'NONE', #282, 43.14000000000000100 ) ;
#284 = CARTESIAN_POINT ( 'NONE',  ( 12.70000000000000500, 0.0000000000000000000, -2.455868924448944200 ) ) ;
#285 = DIRECTION ( 'NONE',  ( -1.224606353822377300E-016, -1.000000000000000000, 0.0000000000000000000 ) ) ;
#286 = DIRECTION ( 'NONE',  ( -1.000000000000000000, 1.224606353822377300E-016, 0.0000000000000000000 ) ) ;
#287 = CARTESIAN_POINT ( 'NONE',  ( 0.0000000000000000000, 0.0000000000000000000, -43.68413107555106500 ) ) ;
#288 = AXIS2_PLACEMENT_3D ( 'NONE', #287, #286, #285 ) ;
#289 = CIRCLE ( 'NONE', #288, 43.14000000000000100 ) ;
#290 = CARTESIAN_POINT ( 'NONE',  ( -1.555250069354420500E-015, -12.70000000000001000, -2.455868924448946000 ) ) ;
#291 = DIRECTION ( 'NONE',  ( 1.000000000000000000, 0.0000000000000000000, 0.0000000000000000000 ) ) ;
#292 = UNCERTAINTY_MEASURE_WITH_UNIT (LENGTH_MEASURE( 1.000000000000000100E-005 ), #308, 'distance_accuracy_value', 'NONE');
#293 = SURFACE_SIDE_STYLE ('',( #306 ) ) ;
#294 = FACE_OUTER_BOUND ( 'NONE', #126, .T. ) ;
#295 =( NAMED_UNIT ( * ) PLANE_ANGLE_UNIT ( ) SI_UNIT ( $, .RADIAN. ) );
#296 = FILL_AREA_STYLE_COLOUR ( '', #258 ) ;
#297 = CARTESIAN_POINT ( 'NONE',  ( 0.0000000000000000000, 0.0000000000000000000, -97.54413107555106400 ) ) ;
#298 = AXIS2_PLACEMENT_3D ( 'NONE', #297, #265, #305 ) ;
#299 = CIRCLE ( 'NONE', #298, 100.0000000000000100 ) ;
#300 = AXIS2_PLACEMENT_3D ( 'NONE', #252, #253, #301 ) ;
#301 = DIRECTION ( 'NONE',  ( -1.224606353822377300E-016, -1.000000000000000000, 0.0000000000000000000 ) ) ;
#302 =( NAMED_UNIT ( * ) SI_UNIT ( $, .STERADIAN. ) SOLID_ANGLE_UNIT ( ) );
#303 = AXIS2_PLACEMENT_3D ( 'NONE', #247, #257, #291 ) ;
#304 = CARTESIAN_POINT ( 'NONE',  ( 0.0000000000000000000, 0.0000000000000000000, -43.68413107555106500 ) ) ;
#305 = DIRECTION ( 'NONE',  ( 0.0000000000000000000, 0.0000000000000000000, -1.000000000000000000 ) ) ;
#306 = SURFACE_STYLE_FILL_AREA ( #250 ) ;
#307 = CARTESIAN_POINT ( 'NONE',  ( 0.0000000000000000000, 6.123031769111886300E-015, 2.455868924448947800 ) ) ;
#308 =( LENGTH_UNIT ( ) NAMED_UNIT ( * ) SI_UNIT ( .MILLI., .METRE. ) );
#309 = PRESENTATION_STYLE_ASSIGNMENT (( #246 ) ) ;
#310 =( LENGTH_UNIT ( ) NAMED_UNIT ( * ) SI_UNIT ( .MILLI., .METRE. ) );
#311 = MECHANICAL_DESIGN_GEOMETRIC_PRESENTATION_REPRESENTATION (  '', ( #313 ), #316 ) ;
#312 = PRESENTATION_LAYER_ASSIGNMENT (  '', '', ( #313 ) ) ;
#313 = STYLED_ITEM ( 'NONE', ( #314 ), #179 ) ;
#314 = PRESENTATION_STYLE_ASSIGNMENT (( #315 ) ) ;
#315 = SURFACE_STYLE_USAGE ( .BOTH. , #271 ) ;
#316 =( GEOMETRIC_REPRESENTATION_CONTEXT ( 3 ) GLOBAL_UNCERTAINTY_ASSIGNED_CONTEXT ( ( #215 ) ) GLOBAL_UNIT_ASSIGNED_CONTEXT ( ( #310, #162, #153 ) ) REPRESENTATION_CONTEXT ( 'NONE', 'WORKASPACE' ) );
#317 = CARTESIAN_POINT ( 'NONE',  ( 0.0000000000000000000, 0.0000000000000000000, 9.860972679289998800 ) ) ;
#318 = AXIS2_PLACEMENT_3D ( 'NONE', #317, #320, #165 ) ;
#319 = CYLINDRICAL_SURFACE ( 'NONE', #318, 12.70000000000000300 ) ;
#320 = DIRECTION ( 'NONE',  ( -0.0000000000000000000, -0.0000000000000000000, 1.000000000000000000 ) ) ;
#321 = CIRCLE ( 'NONE', #157, 12.70000000000000100 ) ;
#322 = CARTESIAN_POINT ( 'NONE',  ( 0.0000000000000000000, 12.69999999999999200, 1.646140624853117200 ) ) ;
ENDSEC;
END-ISO-10303-21;
