ISO-10303-21;
HEADER;
FILE_DESCRIPTION (( 'STEP AP203' ),
    '1' );
FILE_NAME ('43365C_36562.step',
    '2017-07-20T12:39:11',
    ( '' ),
    ( '' ),
    'SwSTEP 2.0',
    'SolidWorks 2016',
    '' );
FILE_SCHEMA (( 'CONFIG_CONTROL_DESIGN' ));
ENDSEC;

DATA;
#1 = ORIENTED_EDGE ( 'NONE', *, *, #115, .T. ) ;
#2 = SHAPE_DEFINITION_REPRESENTATION ( #26, #39 ) ;
#3 = DATE_TIME_ROLE ( 'creation_date' ) ;
#4 =( NAMED_UNIT ( * ) SI_UNIT ( $, .STERADIAN. ) SOLID_ANGLE_UNIT ( ) );
#5 = CARTESIAN_POINT ( 'NONE',  ( 0.0000000000000000000, 0.0000000000000000000, 0.5000000000000000000 ) ) ;
#6 = DESIGN_CONTEXT ( 'detailed design', #123, 'design' ) ;
#7 = EDGE_CURVE ( 'NONE', #64, #137, #23, .T. ) ;
#8 = CC_DESIGN_PERSON_AND_ORGANIZATION_ASSIGNMENT ( #108, #42, ( #78 ) ) ;
#9 = DIRECTION ( 'NONE',  ( -0.0000000000000000000, -0.0000000000000000000, -1.000000000000000000 ) ) ;
#10 = DATE_AND_TIME ( #44, #76 ) ;
#11 = CYLINDRICAL_SURFACE ( 'NONE', #149, 2.500000000000000000 ) ;
#12 = PERSON_AND_ORGANIZATION ( #75, #146 ) ;
#13 = VECTOR ( 'NONE', #98, 1000.000000000000000 ) ;
#14 = PRODUCT_DEFINITION ( 'UNKNOWN', '', #58, #6 ) ;
#15 = APPROVAL_ROLE ( '' ) ;
#16 =( LENGTH_UNIT ( ) NAMED_UNIT ( * ) SI_UNIT ( .MILLI., .METRE. ) );
#17 = PERSON_AND_ORGANIZATION ( #75, #146 ) ;
#18 = CARTESIAN_POINT ( 'NONE',  ( 0.0000000000000000000, 0.0000000000000000000, 0.5000000000000000000 ) ) ;
#19 = PLANE ( 'NONE',  #101 ) ;
#20 = FACE_OUTER_BOUND ( 'NONE', #157, .T. ) ;
#21 = CALENDAR_DATE ( 2017, 20, 7 ) ;
#22 = DIRECTION ( 'NONE',  ( -0.0000000000000000000, -0.0000000000000000000, -1.000000000000000000 ) ) ;
#23 = LINE ( 'NONE', #37, #166 ) ;
#24 = APPROVAL ( #112, 'UNSPECIFIED' ) ;
#25 = DATE_AND_TIME ( #59, #95 ) ;
#26 = PRODUCT_DEFINITION_SHAPE ( 'NONE', 'NONE',  #14 ) ;
#27 = EDGE_LOOP ( 'NONE', ( #132, #1 ) ) ;
#28 = APPROVAL_ROLE ( '' ) ;
#29 = APPLICATION_PROTOCOL_DEFINITION ( 'international standard', 'config_control_design', 1994, #123 ) ;
#30 = APPROVAL_DATE_TIME ( #63, #24 ) ;
#31 = CARTESIAN_POINT ( 'NONE',  ( 2.500000000000000000, 3.061616997868383100E-016, -0.5000000000000000000 ) ) ;
#32 = CARTESIAN_POINT ( 'NONE',  ( 2.500000000000000000, 3.061616997868383100E-016, 0.5000000000000000000 ) ) ;
#33 = ORIENTED_EDGE ( 'NONE', *, *, #7, .F. ) ;
#34 = CC_DESIGN_APPROVAL ( #24, ( #14 ) ) ;
#35 = APPROVAL_PERSON_ORGANIZATION ( #66, #24, #15 ) ;
#36 = CLOSED_SHELL ( 'NONE', ( #163, #89, #38, #107 ) ) ;
#37 = CARTESIAN_POINT ( 'NONE',  ( -2.500000000000000000, 0.0000000000000000000, 0.5000000000000000000 ) ) ;
#38 = ADVANCED_FACE ( 'NONE', ( #57 ), #60, .T. ) ;
#39 = ADVANCED_BREP_SHAPE_REPRESENTATION ( '43365C_36562', ( #102, #174 ), #138 ) ;
#40 = DATE_TIME_ROLE ( 'classification_date' ) ;
#41 = CC_DESIGN_PERSON_AND_ORGANIZATION_ASSIGNMENT ( #172, #93, ( #14 ) ) ;
#42 = PERSON_AND_ORGANIZATION_ROLE ( 'design_owner' ) ;
#43 = DIRECTION ( 'NONE',  ( 1.000000000000000000, 0.0000000000000000000, 0.0000000000000000000 ) ) ;
#44 = CALENDAR_DATE ( 2017, 20, 7 ) ;
#45 = CIRCLE ( 'NONE', #73, 2.500000000000000000 ) ;
#46 = DIRECTION ( 'NONE',  ( 1.000000000000000000, 0.0000000000000000000, -0.0000000000000000000 ) ) ;
#47 = DATE_AND_TIME ( #81, #119 ) ;
#48 = CC_DESIGN_DATE_AND_TIME_ASSIGNMENT ( #25, #3, ( #14 ) ) ;
#49 = PERSON_AND_ORGANIZATION ( #75, #146 ) ;
#50 = FACE_OUTER_BOUND ( 'NONE', #133, .T. ) ;
#51 = SECURITY_CLASSIFICATION_LEVEL ( 'unclassified' ) ;
#52 = DIRECTION ( 'NONE',  ( 1.000000000000000000, 0.0000000000000000000, 0.0000000000000000000 ) ) ;
#53 = LOCAL_TIME ( 8, 39, 11.00000000000000000, #91 ) ;
#54 = DIRECTION ( 'NONE',  ( 1.000000000000000000, 0.0000000000000000000, 0.0000000000000000000 ) ) ;
#55 = CARTESIAN_POINT ( 'NONE',  ( 0.0000000000000000000, 0.0000000000000000000, 0.5000000000000000000 ) ) ;
#56 = DIRECTION ( 'NONE',  ( 1.000000000000000000, 0.0000000000000000000, 0.0000000000000000000 ) ) ;
#57 = FACE_OUTER_BOUND ( 'NONE', #27, .T. ) ;
#58 = PRODUCT_DEFINITION_FORMATION_WITH_SPECIFIED_SOURCE ( 'ANY', '', #78, .NOT_KNOWN. ) ;
#59 = CALENDAR_DATE ( 2017, 20, 7 ) ;
#60 = PLANE ( 'NONE',  #62 ) ;
#61 = ORIENTED_EDGE ( 'NONE', *, *, #106, .T. ) ;
#62 = AXIS2_PLACEMENT_3D ( 'NONE', #105, #162, #134 ) ;
#63 = DATE_AND_TIME ( #103, #140 ) ;
#64 = VERTEX_POINT ( 'NONE', #87 ) ;
#65 = PERSON_AND_ORGANIZATION_ROLE ( 'creator' ) ;
#66 = PERSON_AND_ORGANIZATION ( #75, #146 ) ;
#67 = UNCERTAINTY_MEASURE_WITH_UNIT (LENGTH_MEASURE( 1.000000000000000100E-005 ), #16, 'distance_accuracy_value', 'NONE');
#68 = APPROVAL ( #80, 'UNSPECIFIED' ) ;
#69 = CARTESIAN_POINT ( 'NONE',  ( 0.0000000000000000000, 0.0000000000000000000, -0.5000000000000000000 ) ) ;
#70 = DIRECTION ( 'NONE',  ( 0.0000000000000000000, 0.0000000000000000000, 1.000000000000000000 ) ) ;
#71 = CARTESIAN_POINT ( 'NONE',  ( 0.0000000000000000000, 0.0000000000000000000, -0.5000000000000000000 ) ) ;
#72 = ORIENTED_EDGE ( 'NONE', *, *, #130, .T. ) ;
#73 = AXIS2_PLACEMENT_3D ( 'NONE', #71, #158, #56 ) ;
#74 = CC_DESIGN_APPROVAL ( #68, ( #58 ) ) ;
#75 = PERSON ( 'UNSPECIFIED', 'UNSPECIFIED', 'UNSPECIFIED', ('UNSPECIFIED'), ('UNSPECIFIED'), ('UNSPECIFIED') ) ;
#76 = LOCAL_TIME ( 8, 39, 11.00000000000000000, #116 ) ;
#77 = ORIENTED_EDGE ( 'NONE', *, *, #115, .F. ) ;
#78 = PRODUCT ( '43365C_36562', '43365C_36562', '', ( #141 ) ) ;
#79 = AXIS2_PLACEMENT_3D ( 'NONE', #100, #22, #117 ) ;
#80 = APPROVAL_STATUS ( 'not_yet_approved' ) ;
#81 = CALENDAR_DATE ( 2017, 20, 7 ) ;
#82 = DIRECTION ( 'NONE',  ( 0.0000000000000000000, 0.0000000000000000000, 1.000000000000000000 ) ) ;
#83 = CARTESIAN_POINT ( 'NONE',  ( 0.0000000000000000000, 0.0000000000000000000, -0.5000000000000000000 ) ) ;
#84 = LINE ( 'NONE', #32, #13 ) ;
#85 = CC_DESIGN_PERSON_AND_ORGANIZATION_ASSIGNMENT ( #86, #65, ( #58 ) ) ;
#86 = PERSON_AND_ORGANIZATION ( #75, #146 ) ;
#87 = CARTESIAN_POINT ( 'NONE',  ( -2.500000000000000000, 0.0000000000000000000, 0.5000000000000000000 ) ) ;
#88 = FACE_OUTER_BOUND ( 'NONE', #145, .T. ) ;
#89 = ADVANCED_FACE ( 'NONE', ( #50 ), #161, .T. ) ;
#90 = AXIS2_PLACEMENT_3D ( 'NONE', #5, #82, #170 ) ;
#91 = COORDINATED_UNIVERSAL_TIME_OFFSET ( 5, 0, .BEHIND. ) ;
#92 = ORIENTED_EDGE ( 'NONE', *, *, #151, .F. ) ;
#93 = PERSON_AND_ORGANIZATION_ROLE ( 'creator' ) ;
#94 = CC_DESIGN_PERSON_AND_ORGANIZATION_ASSIGNMENT ( #49, #152, ( #58 ) ) ;
#95 = LOCAL_TIME ( 8, 39, 11.00000000000000000, #135 ) ;
#96 =( NAMED_UNIT ( * ) PLANE_ANGLE_UNIT ( ) SI_UNIT ( $, .RADIAN. ) );
#97 = DIRECTION ( 'NONE',  ( -0.0000000000000000000, -0.0000000000000000000, -1.000000000000000000 ) ) ;
#98 = DIRECTION ( 'NONE',  ( -0.0000000000000000000, -0.0000000000000000000, -1.000000000000000000 ) ) ;
#99 = ORIENTED_EDGE ( 'NONE', *, *, #106, .F. ) ;
#100 = CARTESIAN_POINT ( 'NONE',  ( 0.0000000000000000000, 0.0000000000000000000, 0.5000000000000000000 ) ) ;
#101 = AXIS2_PLACEMENT_3D ( 'NONE', #83, #144, #46 ) ;
#102 = MANIFOLD_SOLID_BREP ( 'Boss-Extrude1', #36 ) ;
#103 = CALENDAR_DATE ( 2017, 20, 7 ) ;
#104 = ORIENTED_EDGE ( 'NONE', *, *, #7, .T. ) ;
#105 = CARTESIAN_POINT ( 'NONE',  ( 0.0000000000000000000, 0.0000000000000000000, 0.5000000000000000000 ) ) ;
#106 = EDGE_CURVE ( 'NONE', #137, #148, #45, .T. ) ;
#107 = ADVANCED_FACE ( 'NONE', ( #88 ), #19, .F. ) ;
#108 = PERSON_AND_ORGANIZATION ( #75, #146 ) ;
#109 = SECURITY_CLASSIFICATION ( '', '', #51 ) ;
#110 = ORIENTED_EDGE ( 'NONE', *, *, #151, .T. ) ;
#111 = AXIS2_PLACEMENT_3D ( 'NONE', #55, #143, #43 ) ;
#112 = APPROVAL_STATUS ( 'not_yet_approved' ) ;
#113 = CARTESIAN_POINT ( 'NONE',  ( -2.500000000000000000, 0.0000000000000000000, -0.5000000000000000000 ) ) ;
#114 = CC_DESIGN_PERSON_AND_ORGANIZATION_ASSIGNMENT ( #17, #139, ( #109 ) ) ;
#115 = EDGE_CURVE ( 'NONE', #173, #64, #121, .T. ) ;
#116 = COORDINATED_UNIVERSAL_TIME_OFFSET ( 5, 0, .BEHIND. ) ;
#117 = DIRECTION ( 'NONE',  ( -1.000000000000000000, 0.0000000000000000000, 0.0000000000000000000 ) ) ;
#118 = AXIS2_PLACEMENT_3D ( 'NONE', #69, #155, #54 ) ;
#119 = LOCAL_TIME ( 8, 39, 11.00000000000000000, #160 ) ;
#120 = ORIENTED_EDGE ( 'NONE', *, *, #127, .F. ) ;
#121 = CIRCLE ( 'NONE', #90, 2.500000000000000000 ) ;
#122 = APPROVAL_STATUS ( 'not_yet_approved' ) ;
#123 = APPLICATION_CONTEXT ( 'configuration controlled 3d designs of mechanical parts and assemblies' ) ;
#124 = CC_DESIGN_DATE_AND_TIME_ASSIGNMENT ( #47, #40, ( #109 ) ) ;
#125 = CARTESIAN_POINT ( 'NONE',  ( 2.500000000000000000, 3.061616997868383100E-016, 0.5000000000000000000 ) ) ;
#126 = APPROVAL_DATE_TIME ( #165, #68 ) ;
#127 = EDGE_CURVE ( 'NONE', #64, #173, #129, .T. ) ;
#128 = DIRECTION ( 'NONE',  ( -1.000000000000000000, 0.0000000000000000000, 0.0000000000000000000 ) ) ;
#129 = CIRCLE ( 'NONE', #111, 2.500000000000000000 ) ;
#130 = EDGE_CURVE ( 'NONE', #173, #148, #84, .T. ) ;
#131 = APPROVAL_PERSON_ORGANIZATION ( #169, #68, #167 ) ;
#132 = ORIENTED_EDGE ( 'NONE', *, *, #127, .T. ) ;
#133 = EDGE_LOOP ( 'NONE', ( #171, #120, #104, #61 ) ) ;
#134 = DIRECTION ( 'NONE',  ( 1.000000000000000000, 0.0000000000000000000, -0.0000000000000000000 ) ) ;
#135 = COORDINATED_UNIVERSAL_TIME_OFFSET ( 5, 0, .BEHIND. ) ;
#136 = APPROVAL ( #122, 'UNSPECIFIED' ) ;
#137 = VERTEX_POINT ( 'NONE', #113 ) ;
#138 =( GEOMETRIC_REPRESENTATION_CONTEXT ( 3 ) GLOBAL_UNCERTAINTY_ASSIGNED_CONTEXT ( ( #67 ) ) GLOBAL_UNIT_ASSIGNED_CONTEXT ( ( #16, #96, #4 ) ) REPRESENTATION_CONTEXT ( 'NONE', 'WORKASPACE' ) );
#139 = PERSON_AND_ORGANIZATION_ROLE ( 'classification_officer' ) ;
#140 = LOCAL_TIME ( 8, 39, 11.00000000000000000, #175 ) ;
#141 = MECHANICAL_CONTEXT ( 'NONE', #153, 'mechanical' ) ;
#142 = CARTESIAN_POINT ( 'NONE',  ( 0.0000000000000000000, 0.0000000000000000000, 0.0000000000000000000 ) ) ;
#143 = DIRECTION ( 'NONE',  ( 0.0000000000000000000, 0.0000000000000000000, 1.000000000000000000 ) ) ;
#144 = DIRECTION ( 'NONE',  ( 0.0000000000000000000, 0.0000000000000000000, 1.000000000000000000 ) ) ;
#145 = EDGE_LOOP ( 'NONE', ( #99, #92 ) ) ;
#146 = ORGANIZATION ( 'UNSPECIFIED', 'UNSPECIFIED', '' ) ;
#147 = CC_DESIGN_APPROVAL ( #136, ( #109 ) ) ;
#148 = VERTEX_POINT ( 'NONE', #31 ) ;
#149 = AXIS2_PLACEMENT_3D ( 'NONE', #18, #97, #128 ) ;
#150 = APPROVAL_DATE_TIME ( #10, #136 ) ;
#151 = EDGE_CURVE ( 'NONE', #148, #137, #159, .T. ) ;
#152 = PERSON_AND_ORGANIZATION_ROLE ( 'design_supplier' ) ;
#153 = APPLICATION_CONTEXT ( 'configuration controlled 3d designs of mechanical parts and assemblies' ) ;
#154 = CC_DESIGN_SECURITY_CLASSIFICATION ( #109, ( #58 ) ) ;
#155 = DIRECTION ( 'NONE',  ( 0.0000000000000000000, 0.0000000000000000000, 1.000000000000000000 ) ) ;
#156 = APPROVAL_PERSON_ORGANIZATION ( #12, #136, #28 ) ;
#157 = EDGE_LOOP ( 'NONE', ( #77, #72, #110, #33 ) ) ;
#158 = DIRECTION ( 'NONE',  ( 0.0000000000000000000, 0.0000000000000000000, 1.000000000000000000 ) ) ;
#159 = CIRCLE ( 'NONE', #118, 2.500000000000000000 ) ;
#160 = COORDINATED_UNIVERSAL_TIME_OFFSET ( 5, 0, .BEHIND. ) ;
#161 = CYLINDRICAL_SURFACE ( 'NONE', #79, 2.500000000000000000 ) ;
#162 = DIRECTION ( 'NONE',  ( 0.0000000000000000000, 0.0000000000000000000, 1.000000000000000000 ) ) ;
#163 = ADVANCED_FACE ( 'NONE', ( #20 ), #11, .T. ) ;
#164 = PRODUCT_RELATED_PRODUCT_CATEGORY ( 'detail', '', ( #78 ) ) ;
#165 = DATE_AND_TIME ( #21, #53 ) ;
#166 = VECTOR ( 'NONE', #9, 1000.000000000000000 ) ;
#167 = APPROVAL_ROLE ( '' ) ;
#168 = APPLICATION_PROTOCOL_DEFINITION ( 'international standard', 'config_control_design', 1994, #153 ) ;
#169 = PERSON_AND_ORGANIZATION ( #75, #146 ) ;
#170 = DIRECTION ( 'NONE',  ( 1.000000000000000000, 0.0000000000000000000, 0.0000000000000000000 ) ) ;
#171 = ORIENTED_EDGE ( 'NONE', *, *, #130, .F. ) ;
#172 = PERSON_AND_ORGANIZATION ( #75, #146 ) ;
#173 = VERTEX_POINT ( 'NONE', #125 ) ;
#174 = AXIS2_PLACEMENT_3D ( 'NONE', #142, #70, #52 ) ;
#175 = COORDINATED_UNIVERSAL_TIME_OFFSET ( 5, 0, .BEHIND. ) ;
ENDSEC;
END-ISO-10303-21;
