ISO-10303-21;
HEADER;
FILE_DESCRIPTION (( 'STEP AP203' ),
    '1' );
FILE_NAME ('Web Model 68510.STEP',
    '2017-02-01T13:24:36',
    ( '' ),
    ( '' ),
    'SwSTEP 2.0',
    'SolidWorks 2016',
    '' );
FILE_SCHEMA (( 'CONFIG_CONTROL_DESIGN' ));
ENDSEC;

DATA;
#1 = CALENDAR_DATE ( 2017, 1, 2 ) ;
#2 = DIRECTION ( 'NONE',  ( 0.0000000000000000000, 0.0000000000000000000, 1.000000000000000000 ) ) ;
#3 = APPROVAL_STATUS ( 'not_yet_approved' ) ;
#4 = CYLINDRICAL_SURFACE ( 'NONE', #151, 25.00000000000000000 ) ;
#5 = SECURITY_CLASSIFICATION ( '', '', #146 ) ;
#6 = EDGE_CURVE ( 'NONE', #162, #98, #80, .T. ) ;
#7 = ADVANCED_FACE ( 'NONE', ( #48 ), #4, .T. ) ;
#8 = CIRCLE ( 'NONE', #52, 25.00000000000000000 ) ;
#9 = EDGE_LOOP ( 'NONE', ( #89, #147, #134, #19 ) ) ;
#10 = UNCERTAINTY_MEASURE_WITH_UNIT (LENGTH_MEASURE( 1.000000000000000100E-005 ), #35, 'distance_accuracy_value', 'NONE');
#11 = CARTESIAN_POINT ( 'NONE',  ( 0.0000000000000000000, 0.0000000000000000000, 2.000000000000000000 ) ) ;
#12 = COORDINATED_UNIVERSAL_TIME_OFFSET ( 5, 0, .BEHIND. ) ;
#13 = PLANE ( 'NONE',  #70 ) ;
#14 = CARTESIAN_POINT ( 'NONE',  ( 0.0000000000000000000, 0.0000000000000000000, 2.000000000000000000 ) ) ;
#15 = CC_DESIGN_PERSON_AND_ORGANIZATION_ASSIGNMENT ( #47, #22, ( #5 ) ) ;
#16 = DIRECTION ( 'NONE',  ( -1.000000000000000000, 0.0000000000000000000, 0.0000000000000000000 ) ) ;
#17 = CALENDAR_DATE ( 2017, 1, 2 ) ;
#18 = AXIS2_PLACEMENT_3D ( 'NONE', #123, #136, #49 ) ;
#19 = ORIENTED_EDGE ( 'NONE', *, *, #76, .T. ) ;
#20 = FACE_OUTER_BOUND ( 'NONE', #27, .T. ) ;
#21 = VECTOR ( 'NONE', #152, 1000.000000000000000 ) ;
#22 = PERSON_AND_ORGANIZATION_ROLE ( 'classification_officer' ) ;
#23 = DATE_AND_TIME ( #17, #51 ) ;
#24 = VERTEX_POINT ( 'NONE', #50 ) ;
#25 = APPROVAL_PERSON_ORGANIZATION ( #62, #121, #116 ) ;
#26 = DIRECTION ( 'NONE',  ( -0.0000000000000000000, -0.0000000000000000000, -1.000000000000000000 ) ) ;
#27 = EDGE_LOOP ( 'NONE', ( #60, #145, #93, #31 ) ) ;
#28 = CIRCLE ( 'NONE', #131, 25.00000000000000000 ) ;
#29 = LOCAL_TIME ( 8, 24, 36.00000000000000000, #107 ) ;
#30 = DATE_AND_TIME ( #1, #174 ) ;
#31 = ORIENTED_EDGE ( 'NONE', *, *, #132, .F. ) ;
#32 = ADVANCED_FACE ( 'NONE', ( #118 ), #65, .T. ) ;
#33 = ORGANIZATION ( 'UNSPECIFIED', 'UNSPECIFIED', '' ) ;
#34 = APPROVAL ( #3, 'UNSPECIFIED' ) ;
#35 =( LENGTH_UNIT ( ) NAMED_UNIT ( * ) SI_UNIT ( .MILLI., .METRE. ) );
#36 =( NAMED_UNIT ( * ) PLANE_ANGLE_UNIT ( ) SI_UNIT ( $, .RADIAN. ) );
#37 = DIRECTION ( 'NONE',  ( 1.000000000000000000, 0.0000000000000000000, 0.0000000000000000000 ) ) ;
#38 = COORDINATED_UNIVERSAL_TIME_OFFSET ( 5, 0, .BEHIND. ) ;
#39 = CARTESIAN_POINT ( 'NONE',  ( -25.00000000000000000, 0.0000000000000000000, 2.000000000000000000 ) ) ;
#40 = CIRCLE ( 'NONE', #103, 25.00000000000000000 ) ;
#41 = PERSON_AND_ORGANIZATION ( #97, #33 ) ;
#42 = DIRECTION ( 'NONE',  ( 0.0000000000000000000, 0.0000000000000000000, 1.000000000000000000 ) ) ;
#43 = AXIS2_PLACEMENT_3D ( 'NONE', #167, #79, #66 ) ;
#44 = LOCAL_TIME ( 8, 24, 36.00000000000000000, #99 ) ;
#45 = PERSON_AND_ORGANIZATION_ROLE ( 'design_supplier' ) ;
#46 = APPROVAL_STATUS ( 'not_yet_approved' ) ;
#47 = PERSON_AND_ORGANIZATION ( #97, #33 ) ;
#48 = FACE_OUTER_BOUND ( 'NONE', #9, .T. ) ;
#49 = DIRECTION ( 'NONE',  ( 1.000000000000000000, 0.0000000000000000000, 0.0000000000000000000 ) ) ;
#50 = CARTESIAN_POINT ( 'NONE',  ( -25.00000000000000000, 0.0000000000000000000, 0.0000000000000000000 ) ) ;
#51 = LOCAL_TIME ( 8, 24, 36.00000000000000000, #133 ) ;
#52 = AXIS2_PLACEMENT_3D ( 'NONE', #81, #125, #37 ) ;
#53 = PRODUCT_DEFINITION ( 'UNKNOWN', '', #114, #75 ) ;
#54 = CARTESIAN_POINT ( 'NONE',  ( 0.0000000000000000000, 0.0000000000000000000, 0.0000000000000000000 ) ) ;
#55 = DIRECTION ( 'NONE',  ( 1.000000000000000000, 0.0000000000000000000, 0.0000000000000000000 ) ) ;
#56 = CC_DESIGN_APPROVAL ( #34, ( #53 ) ) ;
#57 = DIRECTION ( 'NONE',  ( -0.0000000000000000000, -0.0000000000000000000, -1.000000000000000000 ) ) ;
#58 = CARTESIAN_POINT ( 'NONE',  ( 0.0000000000000000000, 0.0000000000000000000, 2.000000000000000000 ) ) ;
#59 = ORIENTED_EDGE ( 'NONE', *, *, #142, .T. ) ;
#60 = ORIENTED_EDGE ( 'NONE', *, *, #142, .F. ) ;
#61 = PERSON_AND_ORGANIZATION_ROLE ( 'creator' ) ;
#62 = PERSON_AND_ORGANIZATION ( #97, #33 ) ;
#63 = DATE_TIME_ROLE ( 'creation_date' ) ;
#64 = ORIENTED_EDGE ( 'NONE', *, *, #122, .F. ) ;
#65 = PLANE ( 'NONE',  #43 ) ;
#66 = DIRECTION ( 'NONE',  ( 1.000000000000000000, 0.0000000000000000000, -0.0000000000000000000 ) ) ;
#67 = AXIS2_PLACEMENT_3D ( 'NONE', #11, #26, #16 ) ;
#68 = SHAPE_DEFINITION_REPRESENTATION ( #90, #143 ) ;
#69 = VERTEX_POINT ( 'NONE', #126 ) ;
#70 = AXIS2_PLACEMENT_3D ( 'NONE', #54, #175, #83 ) ;
#71 = APPROVAL_PERSON_ORGANIZATION ( #148, #34, #72 ) ;
#72 = APPROVAL_ROLE ( '' ) ;
#73 = ADVANCED_FACE ( 'NONE', ( #113 ), #13, .F. ) ;
#74 = APPROVAL_DATE_TIME ( #156, #34 ) ;
#75 = DESIGN_CONTEXT ( 'detailed design', #144, 'design' ) ;
#76 = EDGE_CURVE ( 'NONE', #24, #98, #149, .T. ) ;
#77 = CARTESIAN_POINT ( 'NONE',  ( 25.00000000000000000, 3.061616997868383000E-015, 0.0000000000000000000 ) ) ;
#78 = CARTESIAN_POINT ( 'NONE',  ( 25.00000000000000000, 3.061616997868383000E-015, 2.000000000000000000 ) ) ;
#79 = DIRECTION ( 'NONE',  ( 0.0000000000000000000, 0.0000000000000000000, 1.000000000000000000 ) ) ;
#80 = LINE ( 'NONE', #138, #21 ) ;
#81 = CARTESIAN_POINT ( 'NONE',  ( 0.0000000000000000000, 0.0000000000000000000, 0.0000000000000000000 ) ) ;
#82 = CC_DESIGN_PERSON_AND_ORGANIZATION_ASSIGNMENT ( #41, #91, ( #53 ) ) ;
#83 = DIRECTION ( 'NONE',  ( 1.000000000000000000, 0.0000000000000000000, -0.0000000000000000000 ) ) ;
#84 = PERSON_AND_ORGANIZATION_ROLE ( 'design_owner' ) ;
#85 = DIRECTION ( 'NONE',  ( 1.000000000000000000, 0.0000000000000000000, 0.0000000000000000000 ) ) ;
#86 = APPROVAL ( #158, 'UNSPECIFIED' ) ;
#87 = DATE_TIME_ROLE ( 'classification_date' ) ;
#88 = PERSON_AND_ORGANIZATION ( #97, #33 ) ;
#89 = ORIENTED_EDGE ( 'NONE', *, *, #6, .F. ) ;
#90 = PRODUCT_DEFINITION_SHAPE ( 'NONE', 'NONE',  #53 ) ;
#91 = PERSON_AND_ORGANIZATION_ROLE ( 'creator' ) ;
#92 = CC_DESIGN_DATE_AND_TIME_ASSIGNMENT ( #30, #63, ( #53 ) ) ;
#93 = ORIENTED_EDGE ( 'NONE', *, *, #122, .T. ) ;
#94 = PERSON_AND_ORGANIZATION ( #97, #33 ) ;
#95 = DIRECTION ( 'NONE',  ( -0.0000000000000000000, -0.0000000000000000000, -1.000000000000000000 ) ) ;
#96 = CARTESIAN_POINT ( 'NONE',  ( 0.0000000000000000000, 0.0000000000000000000, 2.000000000000000000 ) ) ;
#97 = PERSON ( 'UNSPECIFIED', 'UNSPECIFIED', 'UNSPECIFIED', ('UNSPECIFIED'), ('UNSPECIFIED'), ('UNSPECIFIED') ) ;
#98 = VERTEX_POINT ( 'NONE', #77 ) ;
#99 = COORDINATED_UNIVERSAL_TIME_OFFSET ( 5, 0, .BEHIND. ) ;
#100 = APPLICATION_PROTOCOL_DEFINITION ( 'international standard', 'config_control_design', 1994, #144 ) ;
#101 = EDGE_LOOP ( 'NONE', ( #173, #64 ) ) ;
#102 = MANIFOLD_SOLID_BREP ( 'Extrude1', #127 ) ;
#103 = AXIS2_PLACEMENT_3D ( 'NONE', #96, #42, #85 ) ;
#104 = CC_DESIGN_APPROVAL ( #86, ( #5 ) ) ;
#105 = APPROVAL_ROLE ( '' ) ;
#106 = ORIENTED_EDGE ( 'NONE', *, *, #154, .T. ) ;
#107 = COORDINATED_UNIVERSAL_TIME_OFFSET ( 5, 0, .BEHIND. ) ;
#108 = CC_DESIGN_PERSON_AND_ORGANIZATION_ASSIGNMENT ( #111, #84, ( #164 ) ) ;
#109 =( NAMED_UNIT ( * ) SI_UNIT ( $, .STERADIAN. ) SOLID_ANGLE_UNIT ( ) );
#110 = EDGE_LOOP ( 'NONE', ( #106, #59 ) ) ;
#111 = PERSON_AND_ORGANIZATION ( #97, #33 ) ;
#112 = CARTESIAN_POINT ( 'NONE',  ( 0.0000000000000000000, 0.0000000000000000000, 0.0000000000000000000 ) ) ;
#113 = FACE_OUTER_BOUND ( 'NONE', #101, .T. ) ;
#114 = PRODUCT_DEFINITION_FORMATION_WITH_SPECIFIED_SOURCE ( 'ANY', '', #164, .NOT_KNOWN. ) ;
#115 = CALENDAR_DATE ( 2017, 1, 2 ) ;
#116 = APPROVAL_ROLE ( '' ) ;
#117 = CC_DESIGN_DATE_AND_TIME_ASSIGNMENT ( #168, #87, ( #5 ) ) ;
#118 = FACE_OUTER_BOUND ( 'NONE', #110, .T. ) ;
#119 = CC_DESIGN_SECURITY_CLASSIFICATION ( #5, ( #114 ) ) ;
#120 = APPROVAL_PERSON_ORGANIZATION ( #94, #86, #105 ) ;
#121 = APPROVAL ( #46, 'UNSPECIFIED' ) ;
#122 = EDGE_CURVE ( 'NONE', #98, #24, #8, .T. ) ;
#123 = CARTESIAN_POINT ( 'NONE',  ( 0.0000000000000000000, 0.0000000000000000000, 0.0000000000000000000 ) ) ;
#124 = VECTOR ( 'NONE', #95, 1000.000000000000000 ) ;
#125 = DIRECTION ( 'NONE',  ( 0.0000000000000000000, 0.0000000000000000000, 1.000000000000000000 ) ) ;
#126 = CARTESIAN_POINT ( 'NONE',  ( -25.00000000000000000, 0.0000000000000000000, 2.000000000000000000 ) ) ;
#127 = CLOSED_SHELL ( 'NONE', ( #163, #7, #32, #73 ) ) ;
#128 =( GEOMETRIC_REPRESENTATION_CONTEXT ( 3 ) GLOBAL_UNCERTAINTY_ASSIGNED_CONTEXT ( ( #10 ) ) GLOBAL_UNIT_ASSIGNED_CONTEXT ( ( #35, #36, #109 ) ) REPRESENTATION_CONTEXT ( 'NONE', 'WORKASPACE' ) );
#129 = APPROVAL_DATE_TIME ( #140, #121 ) ;
#130 = CC_DESIGN_APPROVAL ( #121, ( #114 ) ) ;
#131 = AXIS2_PLACEMENT_3D ( 'NONE', #58, #2, #153 ) ;
#132 = EDGE_CURVE ( 'NONE', #69, #24, #165, .T. ) ;
#133 = COORDINATED_UNIVERSAL_TIME_OFFSET ( 5, 0, .BEHIND. ) ;
#134 = ORIENTED_EDGE ( 'NONE', *, *, #132, .T. ) ;
#135 = APPLICATION_PROTOCOL_DEFINITION ( 'international standard', 'config_control_design', 1994, #171 ) ;
#136 = DIRECTION ( 'NONE',  ( 0.0000000000000000000, 0.0000000000000000000, 1.000000000000000000 ) ) ;
#137 = APPROVAL_DATE_TIME ( #23, #86 ) ;
#138 = CARTESIAN_POINT ( 'NONE',  ( 25.00000000000000000, 3.061616997868383000E-015, 2.000000000000000000 ) ) ;
#139 = DIRECTION ( 'NONE',  ( -1.000000000000000000, 0.0000000000000000000, 0.0000000000000000000 ) ) ;
#140 = DATE_AND_TIME ( #170, #29 ) ;
#141 = MECHANICAL_CONTEXT ( 'NONE', #171, 'mechanical' ) ;
#142 = EDGE_CURVE ( 'NONE', #162, #69, #40, .T. ) ;
#143 = ADVANCED_BREP_SHAPE_REPRESENTATION ( 'Web Model 68510', ( #102, #18 ), #128 ) ;
#144 = APPLICATION_CONTEXT ( 'configuration controlled 3d designs of mechanical parts and assemblies' ) ;
#145 = ORIENTED_EDGE ( 'NONE', *, *, #6, .T. ) ;
#146 = SECURITY_CLASSIFICATION_LEVEL ( 'unclassified' ) ;
#147 = ORIENTED_EDGE ( 'NONE', *, *, #154, .F. ) ;
#148 = PERSON_AND_ORGANIZATION ( #97, #33 ) ;
#149 = CIRCLE ( 'NONE', #160, 25.00000000000000000 ) ;
#150 = CC_DESIGN_PERSON_AND_ORGANIZATION_ASSIGNMENT ( #88, #61, ( #114 ) ) ;
#151 = AXIS2_PLACEMENT_3D ( 'NONE', #14, #57, #139 ) ;
#152 = DIRECTION ( 'NONE',  ( -0.0000000000000000000, -0.0000000000000000000, -1.000000000000000000 ) ) ;
#153 = DIRECTION ( 'NONE',  ( 1.000000000000000000, 0.0000000000000000000, 0.0000000000000000000 ) ) ;
#154 = EDGE_CURVE ( 'NONE', #69, #162, #28, .T. ) ;
#155 = LOCAL_TIME ( 8, 24, 36.00000000000000000, #12 ) ;
#156 = DATE_AND_TIME ( #115, #44 ) ;
#157 = CC_DESIGN_PERSON_AND_ORGANIZATION_ASSIGNMENT ( #161, #45, ( #114 ) ) ;
#158 = APPROVAL_STATUS ( 'not_yet_approved' ) ;
#159 = PRODUCT_RELATED_PRODUCT_CATEGORY ( 'detail', '', ( #164 ) ) ;
#160 = AXIS2_PLACEMENT_3D ( 'NONE', #112, #172, #55 ) ;
#161 = PERSON_AND_ORGANIZATION ( #97, #33 ) ;
#162 = VERTEX_POINT ( 'NONE', #78 ) ;
#163 = ADVANCED_FACE ( 'NONE', ( #20 ), #169, .T. ) ;
#164 = PRODUCT ( 'Web Model 68510', 'Web Model 68510', '', ( #141 ) ) ;
#165 = LINE ( 'NONE', #39, #124 ) ;
#166 = CALENDAR_DATE ( 2017, 1, 2 ) ;
#167 = CARTESIAN_POINT ( 'NONE',  ( 0.0000000000000000000, 0.0000000000000000000, 2.000000000000000000 ) ) ;
#168 = DATE_AND_TIME ( #166, #155 ) ;
#169 = CYLINDRICAL_SURFACE ( 'NONE', #67, 25.00000000000000000 ) ;
#170 = CALENDAR_DATE ( 2017, 1, 2 ) ;
#171 = APPLICATION_CONTEXT ( 'configuration controlled 3d designs of mechanical parts and assemblies' ) ;
#172 = DIRECTION ( 'NONE',  ( 0.0000000000000000000, 0.0000000000000000000, 1.000000000000000000 ) ) ;
#173 = ORIENTED_EDGE ( 'NONE', *, *, #76, .F. ) ;
#174 = LOCAL_TIME ( 8, 24, 36.00000000000000000, #38 ) ;
#175 = DIRECTION ( 'NONE',  ( 0.0000000000000000000, 0.0000000000000000000, 1.000000000000000000 ) ) ;
ENDSEC;
END-ISO-10303-21;
