  0
SECTION
  2
HEADER
  9
$ACADVER
  1
AC1015
  9
$ACADMAINTVER
 70
    10
  9
$DWGCODEPAGE
  3
ANSI_1252
  9
$INSBASE
 10
0.0
 20
0.0
 30
0.0
  9
$EXTMIN
 10
0.187338458403957
 20
0.4763900948415128
 30
-0.0000054893081786
  9
$EXTMAX
 10
17.21858146077435
 20
11.50728727081531
 30
0.3600054943376274
  9
$LIMMIN
 10
0.0
 20
0.0
  9
$LIMMAX
 10
17.0
 20
11.0
  9
$ORTHOMODE
 70
     1
  9
$REGENMODE
 70
     1
  9
$FILLMODE
 70
     1
  9
$QTEXTMODE
 70
     0
  9
$MIRRTEXT
 70
     0
  9
$LTSCALE
 40
0.35
  9
$ATTMODE
 70
     1
  9
$TEXTSIZE
 40
0.08
  9
$TRACEWID
 40
0.05
  9
$TEXTSTYLE
  7
STANDARD
  9
$CLAYER
  8
D1
  9
$CELTYPE
  6
BYLAYER
  9
$CECOLOR
 62
   256
  9
$CELTSCALE
 40
1.0
  9
$DISPSILH
 70
     0
  9
$DIMSCALE
 40
1.0
  9
$DIMASZ
 40
0.18
  9
$DIMEXO
 40
0.04
  9
$DIMDLI
 40
0.38
  9
$DIMRND
 40
0.0
  9
$DIMDLE
 40
0.0
  9
$DIMEXE
 40
0.04
  9
$DIMTP
 40
0.0
  9
$DIMTM
 40
0.0
  9
$DIMTXT
 40
0.1
  9
$DIMCEN
 40
0.09
  9
$DIMTSZ
 40
0.0
  9
$DIMTOL
 70
     0
  9
$DIMLIM
 70
     0
  9
$DIMTIH
 70
     1
  9
$DIMTOH
 70
     1
  9
$DIMSE1
 70
     0
  9
$DIMSE2
 70
     0
  9
$DIMTAD
 70
     0
  9
$DIMZIN
 70
     0
  9
$DIMBLK
  1

  9
$DIMASO
 70
     0
  9
$DIMSHO
 70
     0
  9
$DIMPOST
  1

  9
$DIMAPOST
  1

  9
$DIMALT
 70
     0
  9
$DIMALTD
 70
     2
  9
$DIMALTF
 40
25.4
  9
$DIMLFAC
 40
1.0
  9
$DIMTOFL
 70
     0
  9
$DIMTVP
 40
0.0
  9
$DIMTIX
 70
     0
  9
$DIMSOXD
 70
     0
  9
$DIMSAH
 70
     0
  9
$DIMBLK1
  1

  9
$DIMBLK2
  1

  9
$DIMSTYLE
  2
STANDARD
  9
$DIMCLRD
 70
     0
  9
$DIMCLRE
 70
     0
  9
$DIMCLRT
 70
     0
  9
$DIMTFAC
 40
1.0
  9
$DIMGAP
 40
0.09
  9
$DIMJUST
 70
     0
  9
$DIMSD1
 70
     0
  9
$DIMSD2
 70
     0
  9
$DIMTOLJ
 70
     1
  9
$DIMTZIN
 70
     0
  9
$DIMALTZ
 70
     0
  9
$DIMALTTZ
 70
     0
  9
$DIMUPT
 70
     1
  9
$DIMDEC
 70
     3
  9
$DIMTDEC
 70
     3
  9
$DIMALTU
 70
     2
  9
$DIMALTTD
 70
     2
  9
$DIMTXSTY
  7
STANDARD
  9
$DIMAUNIT
 70
     0
  9
$DIMADEC
 70
     0
  9
$DIMALTRND
 40
0.0
  9
$DIMAZIN
 70
     0
  9
$DIMDSEP
 70
    46
  9
$DIMATFIT
 70
     0
  9
$DIMFRAC
 70
     0
  9
$DIMLDRBLK
  1

  9
$DIMLUNIT
 70
     2
  9
$DIMLWD
 70
    -2
  9
$DIMLWE
 70
    -2
  9
$DIMTMOVE
 70
     0
  9
$LUNITS
 70
     2
  9
$LUPREC
 70
     8
  9
$SKETCHINC
 40
0.005
  9
$FILLETRAD
 40
0.0
  9
$AUNITS
 70
     0
  9
$AUPREC
 70
     0
  9
$MENU
  1
C:\R13\WIN\SUPPORT\ACAD
  9
$ELEVATION
 40
0.0
  9
$PELEVATION
 40
0.0
  9
$THICKNESS
 40
0.0
  9
$LIMCHECK
 70
     0
  9
$CHAMFERA
 40
0.3
  9
$CHAMFERB
 40
0.3
  9
$CHAMFERC
 40
0.0
  9
$CHAMFERD
 40
0.0
  9
$SKPOLY
 70
     0
  9
$TDCREATE
 40
2449547.490001851
  9
$TDUCREATE
 40
2449547.698335185
  9
$TDUPDATE
 40
2453757.335945335
  9
$TDUUPDATE
 40
2453757.544278669
  9
$TDINDWG
 40
1.3822510532
  9
$TDUSRTIMER
 40
1.3822510532
  9
$USRTIMER
 70
     1
  9
$ANGBASE
 50
0.0
  9
$ANGDIR
 70
     0
  9
$PDMODE
 70
     0
  9
$PDSIZE
 40
0.0
  9
$PLINEWID
 40
0.03
  9
$SPLFRAME
 70
     0
  9
$SPLINETYPE
 70
     6
  9
$SPLINESEGS
 70
     8
  9
$HANDSEED
  5
6BBD
  9
$SURFTAB1
 70
     6
  9
$SURFTAB2
 70
     6
  9
$SURFTYPE
 70
     6
  9
$SURFU
 70
     6
  9
$SURFV
 70
     6
  9
$UCSBASE
  2

  9
$UCSNAME
  2

  9
$UCSORG
 10
0.0
 20
0.0
 30
0.0
  9
$UCSXDIR
 10
1.0
 20
0.0
 30
0.0
  9
$UCSYDIR
 10
0.0
 20
1.0
 30
0.0
  9
$UCSORTHOREF
  2

  9
$UCSORTHOVIEW
 70
     1
  9
$UCSORGTOP
 10
0.0
 20
0.0
 30
0.0
  9
$UCSORGBOTTOM
 10
0.0
 20
0.0
 30
0.0
  9
$UCSORGLEFT
 10
0.0
 20
0.0
 30
0.0
  9
$UCSORGRIGHT
 10
0.0
 20
0.0
 30
0.0
  9
$UCSORGFRONT
 10
0.0
 20
0.0
 30
0.0
  9
$UCSORGBACK
 10
0.0
 20
0.0
 30
0.0
  9
$PUCSBASE
  2

  9
$PUCSNAME
  2

  9
$PUCSORG
 10
0.0
 20
0.0
 30
0.0
  9
$PUCSXDIR
 10
1.0
 20
0.0
 30
0.0
  9
$PUCSYDIR
 10
0.0
 20
1.0
 30
0.0
  9
$PUCSORTHOREF
  2

  9
$PUCSORTHOVIEW
 70
     0
  9
$PUCSORGTOP
 10
0.0
 20
0.0
 30
0.0
  9
$PUCSORGBOTTOM
 10
0.0
 20
0.0
 30
0.0
  9
$PUCSORGLEFT
 10
0.0
 20
0.0
 30
0.0
  9
$PUCSORGRIGHT
 10
0.0
 20
0.0
 30
0.0
  9
$PUCSORGFRONT
 10
0.0
 20
0.0
 30
0.0
  9
$PUCSORGBACK
 10
0.0
 20
0.0
 30
0.0
  9
$USERI1
 70
     0
  9
$USERI2
 70
     0
  9
$USERI3
 70
     0
  9
$USERI4
 70
     0
  9
$USERI5
 70
     0
  9
$USERR1
 40
0.0
  9
$USERR2
 40
0.0
  9
$USERR3
 40
0.0
  9
$USERR4
 40
0.0
  9
$USERR5
 40
0.0
  9
$WORLDVIEW
 70
     1
  9
$SHADEDGE
 70
     3
  9
$SHADEDIF
 70
    70
  9
$TILEMODE
 70
     1
  9
$MAXACTVP
 70
    16
  9
$PINSBASE
 10
0.0
 20
0.0
 30
0.0
  9
$PLIMCHECK
 70
     0
  9
$PEXTMIN
 10
1.000000000000000E+20
 20
1.000000000000000E+20
 30
1.000000000000000E+20
  9
$PEXTMAX
 10
-1.000000000000000E+20
 20
-1.000000000000000E+20
 30
-1.000000000000000E+20
  9
$PLIMMIN
 10
0.0
 20
0.0
  9
$PLIMMAX
 10
12.0
 20
9.0
  9
$UNITMODE
 70
     0
  9
$VISRETAIN
 70
     0
  9
$PLINEGEN
 70
     0
  9
$PSLTSCALE
 70
     0
  9
$TREEDEPTH
 70
  3020
  9
$CMLSTYLE
  2
STANDARD
  9
$CMLJUST
 70
     0
  9
$CMLSCALE
 40
1.0
  9
$PROXYGRAPHICS
 70
     1
  9
$MEASUREMENT
 70
     0
  9
$CELWEIGHT
370
    13
  9
$ENDCAPS
280
     0
  9
$JOINSTYLE
280
     0
  9
$LWDISPLAY
290
     0
  9
$INSUNITS
 70
     0
  9
$HYPERLINKBASE
  1

  9
$STYLESHEET
  1
monochrome.ctb
  9
$XEDIT
290
     1
  9
$CEPSNTYPE
380
     0
  9
$PSTYLEMODE
290
     1
  9
$FINGERPRINTGUID
  2
{3E8CAF70-4B02-11D5-AF6E-00508B0B4F95}
  9
$VERSIONGUID
  2
{39A60B3A-DBD8-4060-8335-7A125351026C}
  9
$EXTNAMES
290
     1
  9
$PSVPSCALE
 40
0.0
  9
$OLESTARTUP
290
     0
  0
ENDSEC
  0
SECTION
  2
CLASSES
  0
CLASS
  1
LWPOLYLINE
  2
AcDbPolyline
  3
AutoCAD 2000
 90
    32768
280
     0
281
     1
  0
CLASS
  1
ACDBDICTIONARYWDFLT
  2
AcDbDictionaryWithDefault
  3
AutoCAD 2000
 90
        0
280
     0
281
     0
  0
CLASS
  1
ACDBPLACEHOLDER
  2
AcDbPlaceHolder
  3
AutoCAD 2000
 90
        0
280
     0
281
     0
  0
CLASS
  1
LAYOUT
  2
AcDbLayout
  3
AutoCAD 2000
 90
        0
280
     0
281
     0
  0
CLASS
  1
DICTIONARYVAR
  2
AcDbDictionaryVar
  3
AutoCAD 2000
 90
        0
280
     0
281
     0
  0
ENDSEC
  0
SECTION
  2
TABLES
  0
TABLE
  2
VPORT
  5
8
330
0
100
AcDbSymbolTable
 70
     5
  0
VPORT
  5
6BBC
330
8
100
AcDbSymbolTableRecord
100
AcDbViewportTableRecord
  2
*Active
 70
     0
 10
0.0
 20
0.0
 11
1.0
 21
1.0
 12
8.702959959589154
 22
5.991838682828414
 13
0.0
 23
0.0
 14
0.005
 24
0.005
 15
0.25
 25
0.25
 16
0.0
 26
0.0
 36
1.0
 17
0.0
 27
0.0
 37
0.0
 40
11.15145342926313
 41
1.781021897810219
 42
50.0
 43
0.0
 44
0.0
 50
0.0
 51
0.0
 71
     0
 72
 20000
 73
     1
 74
     2
 75
     0
 76
     0
 77
     0
 78
     0
281
     0
 65
     1
110
0.0
120
0.0
130
0.0
111
1.0
121
0.0
131
0.0
112
0.0
122
1.0
132
0.0
 79
     1
146
0.0
  0
ENDTAB
  0
TABLE
  2
LTYPE
  5
5
330
0
100
AcDbSymbolTable
 70
     2
  0
LTYPE
  5
12
330
5
100
AcDbSymbolTableRecord
100
AcDbLinetypeTableRecord
  2
BYBLOCK
 70
     0
  3

 72
    65
 73
     0
 40
0.0
  0
LTYPE
  5
13
330
5
100
AcDbSymbolTableRecord
100
AcDbLinetypeTableRecord
  2
BYLAYER
 70
     0
  3

 72
    65
 73
     0
 40
0.0
  0
LTYPE
  5
14
330
5
100
AcDbSymbolTableRecord
100
AcDbLinetypeTableRecord
  2
CONTINUOUS
 70
     0
  3
Solid line
 72
    65
 73
     0
 40
0.0
  0
LTYPE
  5
5DB4
330
5
100
AcDbSymbolTableRecord
100
AcDbLinetypeTableRecord
  2
HIDDEN
 70
     0
  3
Hidden __ __ __ __ __ __ __ __ __ __ __ __ __ _
 72
    65
 73
     2
 40
0.375
 49
0.25
 74
     0
 49
-0.125
 74
     0
  0
ENDTAB
  0
TABLE
  2
LAYER
  5
2
330
0
100
AcDbSymbolTable
 70
     7
  0
LAYER
  5
F
330
2
100
AcDbSymbolTableRecord
100
AcDbLayerTableRecord
  2
0
 70
     0
 62
     7
  6
CONTINUOUS
370
    -3
390
5DBE
  0
LAYER
  5
20
330
2
100
AcDbSymbolTableRecord
100
AcDbLayerTableRecord
  2
D1
 70
     0
 62
     6
  6
CONTINUOUS
370
    -3
390
5DBE
  0
LAYER
  5
13F
330
2
100
AcDbSymbolTableRecord
100
AcDbLayerTableRecord
  2
S2
 70
     0
 62
     3
  6
CONTINUOUS
370
    -3
390
5DBE
  0
ENDTAB
  0
TABLE
  2
STYLE
  5
3
330
0
100
AcDbSymbolTable
 70
     1
  0
STYLE
  5
10
330
3
100
AcDbSymbolTableRecord
100
AcDbTextStyleTableRecord
  2
STANDARD
 70
     0
 40
0.0
 41
1.0
 50
0.0
 71
     0
 42
0.08
  3
txt
  4

  0
ENDTAB
  0
TABLE
  2
VIEW
  5
6
330
0
100
AcDbSymbolTable
 70
     0
  0
ENDTAB
  0
TABLE
  2
UCS
  5
7
330
0
100
AcDbSymbolTable
 70
     0
  0
ENDTAB
  0
TABLE
  2
APPID
  5
9
330
0
100
AcDbSymbolTable
 70
     7
  0
APPID
  5
11
330
9
100
AcDbSymbolTableRecord
100
AcDbRegAppTableRecord
  2
ACAD
 70
     0
  0
APPID
  5
140
330
9
100
AcDbSymbolTableRecord
100
AcDbRegAppTableRecord
  2
AME_SOL
 70
     0
  0
APPID
  5
5904
330
9
100
AcDbSymbolTableRecord
100
AcDbRegAppTableRecord
  2
CONTENTTABDATA
 70
     0
  0
APPID
  5
5905
330
9
100
AcDbSymbolTableRecord
100
AcDbRegAppTableRecord
  2
CONTENTCURRENTTAB
 70
     0
  0
APPID
  5
5908
330
9
100
AcDbSymbolTableRecord
100
AcDbRegAppTableRecord
  2
CONTENTBLOCKDESCRIPTION
 70
     0
  0
APPID
  5
5922
330
9
100
AcDbSymbolTableRecord
100
AcDbRegAppTableRecord
  2
CONTENTLONGBLOCKNAME
 70
     0
  0
APPID
  5
5923
330
9
100
AcDbSymbolTableRecord
100
AcDbRegAppTableRecord
  2
CONTENTBLOCKICON
 70
     0
  0
ENDTAB
  0
TABLE
  2
DIMSTYLE
  5
A
330
0
100
AcDbSymbolTable
 70
     1
100
AcDbDimStyleTable
 71
     1
340
12F
  0
DIMSTYLE
105
12F
330
A
100
AcDbSymbolTableRecord
100
AcDbDimStyleTableRecord
  2
STANDARD
 70
     0
 42
0.04
 44
0.04
140
0.1
271
     3
272
     3
288
     1
340
10
  0
ENDTAB
  0
TABLE
  2
BLOCK_RECORD
  5
1
330
0
100
AcDbSymbolTable
 70
     5
  0
BLOCK_RECORD
  5
18
330
1
100
AcDbSymbolTableRecord
100
AcDbBlockTableRecord
  2
*MODEL_SPACE
340
5DC1
  0
BLOCK_RECORD
  5
15
330
1
100
AcDbSymbolTableRecord
100
AcDbBlockTableRecord
  2
*PAPER_SPACE
340
5DC2
  0
BLOCK_RECORD
  5
139
330
1
100
AcDbSymbolTableRecord
100
AcDbBlockTableRecord
  2
AME_NIL
340
0
102
{BLKREFS
331
B99
102
}
  0
BLOCK_RECORD
  5
13C
330
1
100
AcDbSymbolTableRecord
100
AcDbBlockTableRecord
  2
AME_SOL
340
0
102
{BLKREFS
331
B9A
102
}
  0
ENDTAB
  0
ENDSEC
  0
SECTION
  2
BLOCKS
  0
BLOCK
  5
28
330
18
100
AcDbEntity
  8
0
100
AcDbBlockBegin
  2
*MODEL_SPACE
 70
     0
 10
0.0
 20
0.0
 30
0.0
  3
*MODEL_SPACE
  1

  0
ENDBLK
  5
29
330
18
100
AcDbEntity
  8
0
100
AcDbBlockEnd
  0
BLOCK
  5
26
330
15
100
AcDbEntity
 67
     1
  8
0
100
AcDbBlockBegin
  2
*PAPER_SPACE
 70
     0
 10
0.0
 20
0.0
 30
0.0
  3
*PAPER_SPACE
  1

  0
ENDBLK
  5
27
330
15
100
AcDbEntity
 67
     1
  8
0
100
AcDbBlockEnd
  0
BLOCK
  5
13A
330
139
100
AcDbEntity
  8
0
100
AcDbBlockBegin
  2
AME_NIL
 70
     0
 10
0.0
 20
0.0
 30
0.0
  3
AME_NIL
  1
AME_NIL
  0
ENDBLK
  5
13B
330
139
100
AcDbEntity
  8
0
100
AcDbBlockEnd
  0
BLOCK
  5
13D
330
13C
100
AcDbEntity
  8
0
100
AcDbBlockBegin
  2
AME_SOL
 70
     0
 10
0.0
 20
0.0
 30
0.0
  3
AME_SOL
  1
AME_SOL
  0
ENDBLK
  5
13E
330
13C
100
AcDbEntity
  8
0
100
AcDbBlockEnd
  0
ENDSEC
  0
SECTION
  2
ENTITIES
  0
TEXT
  5
119
330
18
100
AcDbEntity
  8
D1
100
AcDbText
 10
13.09499999999999
 20
1.41
 30
0.0
 40
0.1
  1
   
100
AcDbText
  0
TEXT
  5
121
330
18
100
AcDbEntity
  8
D1
100
AcDbText
 10
13.935
 20
0.5400000000000005
 30
0.0
 40
0.1099999999999999
  1
    
100
AcDbText
  0
TEXT
  5
122
330
18
100
AcDbEntity
  8
D1
100
AcDbText
 10
14.97499999999999
 20
1.375
 30
0.0
 40
0.1
  1
 
100
AcDbText
  0
INSERT
  5
B99
330
18
100
AcDbEntity
  8
S2
100
AcDbBlockReference
  2
AME_NIL
 10
18.01494614176086
 20
14.67117853937151
 30
0.0
  0
INSERT
  5
B9A
330
18
100
AcDbEntity
  8
S2
100
AcDbBlockReference
  2
AME_SOL
 10
18.01494614176086
 20
14.67117853937151
 30
0.0
1001
AME_SOL
1000
R2.1_c2
1000
AME2
1000
sq cm
1070
     3
1070
     0
1070
     3
1000
wire
1040
45.0
1000
U
1040
1.0
1000
cm
1000
gm
1000
MILD_STEEL
1070
    25
1000
CSG
1070
     1
1070
     3
1070
     3
1070
     3
1070
     0
1000
cu cm
1070
     1
1070
     0
1005
0
  0
MTEXT
  5
5512
330
18
100
AcDbEntity
  8
D1
  6
Continuous
100
AcDbMText
 10
6.007481415616639
 20
4.98365142100042
 30
0.0
 40
0.13
 41
0.0
 71
     6
 72
     5
  1

 73
     1
 44
1.0
  0
LWPOLYLINE
  5
5907
330
18
100
AcDbEntity
  8
0
  6
Continuous
370
    13
100
AcDbPolyline
 90
        4
 70
     1
 43
0.03
 10
0.2033186418844295
 20
0.4921116272831716
 10
17.20331864188443
 20
0.4921116272831716
 10
17.20331864188443
 20
11.49211162728317
 10
0.2033186418844295
 20
11.49211162728317
  0
LWPOLYLINE
  5
59EC
330
18
100
AcDbEntity
  8
0
370
    13
100
AcDbPolyline
 90
        2
 70
     0
 43
0.0144
 10
16.13808983146224
 20
1.06111962728317
 10
16.13808983146224
 20
0.7816156272831709
  0
LWPOLYLINE
  5
59ED
330
18
100
AcDbEntity
  8
0
370
    13
100
AcDbPolyline
 90
        2
 70
     0
 43
0.0144
 10
15.3078441832334
 20
1.06111962728317
 10
15.3078441832334
 20
0.4838757627084576
  0
LWPOLYLINE
  5
59EE
330
18
100
AcDbEntity
  8
0
370
    13
100
AcDbPolyline
 90
        2
 70
     0
 43
0.0144
 10
17.20913868652081
 20
0.7816156272831709
 10
13.93243864188443
 20
0.7816156272831709
  0
LWPOLYLINE
  5
59EF
330
18
100
AcDbEntity
  8
0
370
    13
100
AcDbPolyline
 90
        2
 70
     0
 43
0.0144
 10
17.21349565830657
 20
1.06111962728317
 10
13.93243864188443
 20
1.06111962728317
  0
LWPOLYLINE
  5
59F0
330
18
100
AcDbEntity
  8
0
370
    13
100
AcDbPolyline
 90
        2
 70
     0
 43
0.0144
 10
13.93243864188443
 20
1.34062362728317
 10
17.21349565830657
 20
1.34062362728317
  0
LWPOLYLINE
  5
59F1
330
18
100
AcDbEntity
  8
0
370
    13
100
AcDbPolyline
 90
        2
 70
     0
 43
0.0144
 10
13.93243864188443
 20
1.620127627283171
 10
17.19331864188443
 20
1.620127627283171
  0
LWPOLYLINE
  5
59F2
330
18
100
AcDbEntity
  8
0
370
    13
100
AcDbPolyline
 90
        2
 70
     0
 43
0.0144
 10
17.19331864188443
 20
1.778273835643592
 10
13.93243864188443
 20
1.778273835643592
  0
LWPOLYLINE
  5
59F3
330
18
100
AcDbEntity
  8
0
370
    13
100
AcDbPolyline
 90
        2
 70
     0
 43
0.0144
 10
13.93243864188443
 20
1.936673835643592
 10
17.19331864188443
 20
1.936673835643592
  0
LINE
  5
59F4
330
18
100
AcDbEntity
  8
0
370
    13
100
AcDbLine
 10
13.93243864188443
 20
1.936673835643592
 30
0.0
 11
17.19331864188442
 21
1.936673835643592
 31
0.0
  0
LINE
  5
59F5
330
18
100
AcDbEntity
  8
0
370
    13
100
AcDbLine
 10
13.93243864188443
 20
1.620127627283171
 30
0.0
 11
17.19331864188442
 21
1.620127627283171
 31
0.0
  0
LINE
  5
59F6
330
18
100
AcDbEntity
  8
0
370
    13
100
AcDbLine
 10
13.93243864188443
 20
1.34062362728317
 30
0.0
 11
17.21349565830658
 21
1.34062362728317
 31
0.0
  0
LINE
  5
59F7
330
18
100
AcDbEntity
  8
0
370
    13
100
AcDbLine
 10
13.93243864188443
 20
1.06111962728317
 30
0.0
 11
17.21349565830658
 21
1.06111962728317
 31
0.0
  0
LINE
  5
59F8
330
18
100
AcDbEntity
  8
0
370
    13
100
AcDbLine
 10
13.93243864188443
 20
0.7816156272831709
 30
0.0
 11
17.20913868652081
 21
0.7816156272831709
 31
0.0
  0
LINE
  5
59F9
330
18
100
AcDbEntity
  8
0
370
    13
100
AcDbLine
 10
13.93243864188443
 20
1.778273835643592
 30
0.0
 11
17.19331864188442
 21
1.778273835643592
 31
0.0
  0
TRACE
  5
59FA
330
18
100
AcDbEntity
  8
0
370
    13
100
AcDbTrace
 10
17.19331864188442
 20
2.206861035643592
 30
0.0
 11
17.19331864188442
 21
2.225494635643592
 31
0.0
 12
13.93709704188443
 22
2.206861035643592
 32
0.0
 13
13.93709704188443
 23
2.225494635643592
 33
0.0
  0
TEXT
  5
59FB
330
18
100
AcDbEntity
  8
0
370
    13
100
AcDbText
 10
16.17667174762063
 20
0.9635309474587469
 30
0.0
 40
0.0576
  1
DRAWING SCALE
100
AcDbText
  0
TEXT
  5
59FC
330
18
100
AcDbEntity
  8
0
370
    13
100
AcDbText
 10
15.85612215094673
 20
1.52808119330731
 30
0.0
 40
0.0576
  1
APPROVED
100
AcDbText
  0
TEXT
  5
59FD
330
18
100
AcDbEntity
  8
0
100
AcDbText
 10
15.59051515502297
 20
0.5431888808400345
 30
0.0
 40
0.0864
  1
SM05PD5B
100
AcDbText
  0
TEXT
  5
59FE
330
18
100
AcDbEntity
  8
0
370
    13
100
AcDbText
 10
14.01628984188443
 20
1.815555435643592
 30
0.0
 40
0.0652176
  1
TOL: X.XXX=+/-0.005 X.XX=+/-0.010 ANGULAR +/-30'
100
AcDbText
  0
TRACE
  5
59FF
330
18
100
AcDbEntity
  8
0
370
    13
100
AcDbTrace
 10
17.19331864188442
 20
2.565557835643591
 30
0.0
 11
17.19331864188442
 21
2.612141835643591
 31
0.0
 12
13.95573064188443
 22
2.565557835643591
 32
0.0
 13
13.90914664188443
 23
2.612141835643591
 33
0.0
  0
TEXT
  5
5A00
330
18
100
AcDbEntity
  8
0
100
AcDbText
 10
14.09505053366135
 20
1.994379289860429
 30
0.0
 40
0.0864
  1
SM05PD5B MOUNTED InGaAs PHOTODIODE
100
AcDbText
  0
TEXT
  5
5A01
330
18
100
AcDbEntity
  8
0
100
AcDbText
 10
14.5316413308064
 20
1.126515888656993
 30
0.0
 40
0.0864
  1
N/A
100
AcDbText
  0
TEXT
  5
5A02
330
18
100
AcDbEntity
  8
0
370
    13
100
AcDbText
 10
14.0028724779958
 20
1.662780269116971
 30
0.0
 40
0.0623101182846307
  1
SURF. FINISH: 32 MICROINCHES UNLESS OTHERWISE NOTED
100
AcDbText
  0
LWPOLYLINE
  5
5A03
330
18
100
AcDbEntity
  8
0
370
    13
100
AcDbPolyline
 90
        2
 70
     0
 43
0.0144
 10
14.9920749093331
 20
1.06111962728317
 10
14.9920749093331
 20
0.7816156272831709
  0
LWPOLYLINE
  5
5A04
330
18
100
AcDbEntity
  8
0
370
    13
100
AcDbPolyline
 90
        2
 70
     0
 43
0.0144
 10
14.72044624632172
 20
1.06111962728317
 10
14.72044624632172
 20
0.7816156272831709
  0
LWPOLYLINE
  5
5A05
330
18
100
AcDbEntity
  8
0
370
    13
100
AcDbPolyline
 90
        2
 70
     0
 43
0.0144
 10
14.95804624632172
 20
1.620127627283171
 10
14.95804624632172
 20
1.34062362728317
  0
LWPOLYLINE
  5
5A06
330
18
100
AcDbEntity
  8
0
370
    13
100
AcDbPolyline
 90
        2
 70
     0
 43
0.0144
 10
15.76300624632172
 20
1.620127627283171
 10
15.76300624632172
 20
1.34062362728317
  0
LINE
  5
5A07
330
18
100
AcDbEntity
  8
0
370
    13
100
AcDbLine
 10
14.9920749093331
 20
1.06111962728317
 30
0.0
 11
14.9920749093331
 21
0.7816156272831709
 31
0.0
  0
LINE
  5
5A08
330
18
100
AcDbEntity
  8
0
370
    13
100
AcDbLine
 10
14.95804624632172
 20
1.34062362728317
 30
0.0
 11
14.95804624632172
 21
1.620127627283171
 31
0.0
  0
LINE
  5
5A09
330
18
100
AcDbEntity
  8
0
370
    13
100
AcDbLine
 10
15.76300624632172
 20
1.34062362728317
 30
0.0
 11
15.76300624632172
 21
1.620127627283171
 31
0.0
  0
LINE
  5
5A0A
330
18
100
AcDbEntity
  8
0
370
    13
100
AcDbLine
 10
14.72044624632172
 20
0.7816156272831709
 30
0.0
 11
14.72044624632172
 21
1.06111962728317
 31
0.0
  0
TEXT
  5
5A0B
330
18
100
AcDbEntity
  8
0
100
AcDbText
 10
14.15216260790222
 20
0.5431888808400345
 30
0.0
 40
0.0864
  1
13830-E01
100
AcDbText
  0
TEXT
  5
5A0C
330
18
100
AcDbEntity
  8
0
100
AcDbText
 10
13.99931515502297
 20
0.8455888808400334
 30
0.0
 40
0.0864
  1
12/03/05
100
AcDbText
  0
TEXT
  5
5A0D
330
18
100
AcDbEntity
  8
0
100
AcDbText
 10
14.26020730202883
 20
1.382872846864173
 30
0.0
 40
0.0864
  1
HS
100
AcDbText
  0
TEXT
  5
5A0E
330
18
100
AcDbEntity
  8
0
100
AcDbText
 10
14.8305004934966
 20
0.8455888808400334
 30
0.0
 40
0.0864
  1
A
100
AcDbText
  0
TEXT
  5
5A0F
330
18
100
AcDbEntity
  8
0
370
    13
100
AcDbText
 10
15.04861222247164
 20
0.9649707167954256
 30
0.0
 40
0.0576
  1
SIZE
 72
     1
 11
15.14461222247164
 21
0.9649707167954256
 31
0.0
100
AcDbText
  0
TEXT
  5
5A10
330
18
100
AcDbEntity
  8
0
100
AcDbText
 10
15.11638934857135
 20
0.8569707167954252
 30
0.0
 40
0.0864
  1
B
 72
     1
 11
15.14518934857135
 21
0.8569707167954252
 31
0.0
100
AcDbText
  0
TEXT
  5
5A11
330
18
100
AcDbEntity
  8
0
100
AcDbText
 10
15.52810589062972
 20
0.8455888808400334
 30
0.0
 40
0.0864
  1
1
100
AcDbText
  0
TEXT
  5
5A13
330
18
100
AcDbEntity
  8
0
100
AcDbText
 10
15.88090589062971
 20
0.8455888808400334
 30
0.0
 40
0.0864
  1
1
100
AcDbText
  0
TRACE
  5
5A14
330
18
100
AcDbEntity
  8
0
370
    13
100
AcDbTrace
 10
13.95573064188443
 20
2.566061402659054
 30
0.0
 11
13.90914664188443
 21
2.612645402659055
 31
0.0
 12
13.95573064188443
 22
0.5021116272831714
 32
0.0
 13
13.90914664188443
 23
0.5021116272831714
 33
0.0
  0
LINE
  5
5A15
330
18
100
AcDbEntity
  8
0
370
    13
100
AcDbLine
 10
16.13808983146224
 20
1.06111962728317
 30
0.0
 11
16.13808983146224
 21
0.7816156272831709
 31
0.0
  0
LINE
  5
5A16
330
18
100
AcDbEntity
  8
0
370
    13
100
AcDbLine
 10
15.3078441832334
 20
0.4838757627084576
 30
0.0
 11
15.3078441832334
 21
1.06111962728317
 31
0.0
  0
TEXT
  5
5A17
330
18
100
AcDbEntity
  8
0
370
    13
100
AcDbText
 10
14.02094824188443
 20
0.6884476272831708
 30
0.0
 40
0.0652176
  1
DWG NO.
100
AcDbText
  0
TEXT
  5
5A18
330
18
100
AcDbEntity
  8
0
370
    13
100
AcDbText
 10
15.36735528000759
 20
0.6884476272831708
 30
0.0
 40
0.0652176
  1
PART NO.
100
AcDbText
  0
TEXT
  5
5A19
330
18
100
AcDbEntity
  8
0
370
    13
100
AcDbText
 10
14.9794930726573
 20
1.52808119330731
 30
0.0
 40
0.0576
  1
ENGINEER
100
AcDbText
  0
TEXT
  5
5A1A
330
18
100
AcDbEntity
  8
0
370
    13
100
AcDbText
 10
14.01628984188443
 20
1.238560686607382
 30
0.0
 40
0.0652176
  1
MATERIAL
100
AcDbText
  0
TEXT
  5
5A1B
330
18
100
AcDbEntity
  8
0
370
    13
100
AcDbText
 10
14.02094824188442
 20
0.9679516272831708
 30
0.0
 40
0.0576
  1
DATE
100
AcDbText
  0
TEXT
  5
5A1C
330
18
100
AcDbEntity
  8
0
370
    13
100
AcDbText
 10
14.01008523453413
 20
1.52808119330731
 30
0.0
 40
0.0576
  1
DRAWN
100
AcDbText
  0
TEXT
  5
5A1D
330
18
100
AcDbEntity
  8
0
370
    13
100
AcDbText
 10
14.7502000800076
 20
0.9632932272831705
 30
0.0
 40
0.0576
  1
REV
100
AcDbText
  0
TEXT
  5
5A1E
330
18
100
AcDbEntity
  8
0
370
    13
100
AcDbText
 10
14.01628984188443
 20
2.118351435643592
 30
0.0
 40
0.0652176
  1
TITLE
100
AcDbText
  0
TEXT
  5
5A1F
330
18
100
AcDbEntity
  8
0
370
    13
100
AcDbText
 10
15.34569504774953
 20
0.9635309474587469
 30
0.0
 40
0.0576
  1
SHEET
100
AcDbText
  0
TEXT
  5
5A20
330
18
100
AcDbEntity
  8
0
370
    13
100
AcDbText
 10
15.66511964715972
 20
0.8523412272831709
 30
0.0
 40
0.0652176
  1
OF
100
AcDbText
  0
TEXT
  5
5A21
330
18
100
AcDbEntity
  8
0
100
AcDbText
 10
16.3747540353002
 20
0.8455888808400334
 30
0.0
 40
0.0864
  1
2" = 1"
100
AcDbText
  0
TEXT
  5
5A22
330
18
100
AcDbEntity
  8
0
370
    13
100
AcDbText
 10
16.06432964945025
 20
2.423164986131337
 30
0.0
 40
0.104814
  1
PO BOX 366
100
AcDbText
  0
TEXT
  5
5A23
330
18
100
AcDbEntity
  8
0
370
    13
100
AcDbText
 10
16.06432964945025
 20
2.248474986131337
 30
0.0
 40
0.104814
  1
NEWTON NJ
100
AcDbText
  0
LWPOLYLINE
  5
5A24
330
18
100
AcDbEntity
  8
0
370
    13
100
AcDbPolyline
 90
        2
 70
     0
 43
0.00493045056
 10
15.91654691965104
 20
2.462067105502534
 42
0.1521907920671271
 10
15.91225178861954
 20
2.496806460126451
 42
0.1521907920671271
  0
SOLID
  5
5A25
330
18
100
AcDbEntity
  8
0
370
    13
100
AcDbTrace
 10
15.90234858433021
 20
2.470291697178187
 30
0.0
 11
15.91832203822379
 21
2.462310286192544
 31
0.0
 12
15.89585936868593
 22
2.491741739202103
 32
0.0
 13
15.91108406692825
 23
2.501967922027458
 33
0.0
  0
LWPOLYLINE
  5
5A26
330
18
100
AcDbEntity
  8
0
370
    13
100
AcDbPolyline
 90
        2
 70
     0
 43
0.00493045056
 10
15.79543783155204
 20
2.490673265252777
 42
0.3986208060685013
 10
15.82837010359392
 20
2.420374273631635
 42
0.3986208060685013
  0
SOLID
  5
5A27
330
18
100
AcDbEntity
  8
0
370
    13
100
AcDbTrace
 10
15.82291490085985
 20
2.499107795052449
 30
0.0
 11
15.81049029370266
 21
2.512652890338303
 31
0.0
 12
15.8075535683746
 22
2.482627929121326
 32
0.0
 13
15.79332174563091
 23
2.488497470411862
 33
0.0
  0
SOLID
  5
5A28
330
18
100
AcDbEntity
  8
0
370
    13
100
AcDbTrace
 10
15.8075535683746
 20
2.482627929121326
 30
0.0
 11
15.79332174563091
 21
2.488497470411862
 31
0.0
 12
15.81003848980603
 22
2.456440744902008
 32
0.0
 13
15.7951289612174
 23
2.450345452023373
 33
0.0
  0
ARC
  5
5A29
330
18
100
AcDbEntity
  8
0
370
    13
100
AcDbCircle
 10
15.48037296698338
 20
2.451406827523078
 30
0.0
 40
0.0589785580760116
100
AcDbArc
 50
358.6532608214001
 51
58.67020583628288
  0
SOLID
  5
5A2A
330
18
100
AcDbEntity
  8
0
370
    13
100
AcDbTrace
 10
14.76653889437084
 20
2.477550151191652
 30
0.0
 11
14.76653889437084
 21
2.511788449336835
 31
0.0
 12
14.83350507409793
 22
2.477550151191652
 32
0.0
 13
14.85764617023569
 23
2.517497586131336
 33
0.0
  0
LWPOLYLINE
  5
5A2B
330
18
100
AcDbEntity
  8
0
370
    13
100
AcDbPolyline
 90
        2
 70
     0
 43
0.0104814
 10
14.86549971251974
 20
2.385556000624649
 42
0.9399343180161681
 10
14.85764617023569
 20
2.512256886131337
 42
0.9399343180161681
  0
LWPOLYLINE
  5
5A2C
330
18
100
AcDbEntity
  8
0
370
    13
100
AcDbPolyline
 90
        2
 70
     0
 43
0.0104814
 10
14.83350507409793
 20
2.394445578919877
 42
1.0
 10
14.83350507409793
 20
2.482790851191652
 42
1.0
  0
SOLID
  5
5A2D
330
18
100
AcDbEntity
  8
0
370
    13
100
AcDbTrace
 10
14.87389709336464
 20
2.461444576793407
 30
0.0
 11
14.91458577012296
 21
2.482616780915384
 31
0.0
 12
14.85599407559098
 22
2.480445272800309
 32
0.0
 13
14.87443960905475
 23
2.510303509382583
 33
0.0
  0
SOLID
  5
5A2E
330
18
100
AcDbEntity
  8
0
370
    13
100
AcDbTrace
 10
14.85599407559098
 20
2.480445272800309
 30
0.0
 11
14.87443960905475
 21
2.510303509382583
 31
0.0
 12
14.83350507409793
 22
2.477550151191652
 32
0.0
 13
14.85764617023569
 23
2.517497586131336
 33
0.0
  0
LWPOLYLINE
  5
5A2F
330
18
100
AcDbEntity
  8
0
370
    13
100
AcDbPolyline
 90
        6
 70
     0
 43
0.00493045056
 10
15.83111860223525
 20
2.501330070830354
 42
0.3426274439635524
 10
15.80734620408546
 20
2.476050825668901
 42
0.2942809489964497
 10
15.82428613456932
 20
2.443344666530432
 42
0.2735375373643303
 10
15.88593923054275
 20
2.444178151741401
 42
0.208169861593478
 10
15.90160919418534
 20
2.466465816932976
 42
0.4189849082168211
 10
15.87745005096923
 20
2.502453249544586
 42
0.4189849082168211
  0
LINE
  5
5A30
330
18
100
AcDbEntity
  8
0
370
    13
100
AcDbLine
 10
14.98148885264618
 20
2.300008536131336
 30
0.0
 11
14.98148885264618
 21
2.517497586131336
 31
0.0
  0
LINE
  5
5A31
330
18
100
AcDbEntity
  8
0
370
    13
100
AcDbLine
 10
14.92646150264618
 20
2.517497586131336
 30
0.0
 11
14.92646150264618
 21
2.255462586131337
 31
0.0
  0
LWPOLYLINE
  5
5A32
330
18
100
AcDbEntity
  8
0
370
    13
100
AcDbPolyline
 90
        4
 70
     0
 43
0.0
 10
15.10997771489618
 20
2.300008536131336
 10
15.18718632764619
 20
2.517497586131336
 10
15.24614420264618
 20
2.517497586131336
 10
15.33258757683973
 20
2.273995123614297
  0
LINE
  5
5A33
330
18
100
AcDbEntity
  8
0
370
    13
100
AcDbLine
 10
15.33258757683973
 20
2.517497586131336
 30
0.0
 11
15.33258757683973
 21
2.273995123614299
 31
0.0
  0
LWPOLYLINE
  5
5A34
330
18
100
AcDbEntity
  8
0
370
    13
100
AcDbPolyline
 90
       14
 70
     0
 43
0.0
 10
15.54666591459322
 20
2.334210671736443
 10
15.58868177414534
 20
2.334210671736443
 42
0.3020440864755188
 10
15.61555162392121
 20
2.294624202276565
 42
0.2653699712401423
 10
15.68759371750457
 20
2.304114549770706
 42
0.6356064402471244
 10
15.67596573271429
 20
2.358311684260055
 42
-0.0009437836138568
 10
15.59007221237064
 20
2.37832868810786
 42
-0.3442454331168749
 10
15.53938797198022
 20
2.4414078564764
 42
-0.322222187521162
 10
15.59136875298689
 20
2.515837983645528
 42
-0.1417364340760132
 10
15.68022029139325
 20
2.520829930332128
 42
-0.3337744805077131
 10
15.74397398679628
 20
2.445296615677748
 10
15.69215980936515
 20
2.445296615677748
 42
0.3019792396306431
 10
15.66740696524277
 20
2.479695889795471
 42
0.1972875622237244
 10
15.61245847369059
 20
2.47809853067431
 42
0.728374493267646
 10
15.61870560631762
 20
2.419866265182064
 42
0.0019568917075044
  0
SOLID
  5
5A35
330
18
100
AcDbEntity
  8
0
370
    13
100
AcDbTrace
 10
14.68785378002881
 20
2.471408161981998
 30
0.0
 11
14.64888506626278
 21
2.453014450379919
 31
0.0
 12
14.63565040875734
 22
2.512610075970656
 32
0.0
 13
14.62241575125191
 23
2.475086904302415
 33
0.0
  0
SOLID
  5
5A36
330
18
100
AcDbEntity
  8
0
370
    13
100
AcDbTrace
 10
14.63565040875734
 20
2.512610075970656
 30
0.0
 11
14.62241575125191
 21
2.475086904302415
 31
0.0
 12
14.58762865452397
 22
2.522814238305249
 32
0.0
 13
14.58652175589624
 23
2.485154618740033
 33
0.0
  0
SOLID
  5
5A37
330
18
100
AcDbEntity
  8
0
370
    13
100
AcDbTrace
 10
14.51789404097712
 20
2.498446249174815
 30
0.0
 11
14.53781821627622
 21
2.468540080696555
 31
0.0
 12
14.48247328488984
 22
2.458571357870467
 32
0.0
 13
14.52010783823258
 23
2.431988097000902
 33
0.0
  0
LWPOLYLINE
  5
5A38
330
18
100
AcDbEntity
  8
0
370
    13
100
AcDbPolyline
 90
        2
 70
     0
 43
0.0104814
 10
14.70090750849396
 20
2.436925369059132
 42
0.7414713431190223
 10
14.47546412469451
 20
2.435594318890266
 42
0.7414713431190223
  0
SOLID
  5
5A39
330
18
100
AcDbEntity
  8
0
370
    13
100
AcDbTrace
 10
14.58762865452397
 20
2.522814238305249
 30
0.0
 11
14.58652175589624
 21
2.485154618740033
 31
0.0
 12
14.51789404097712
 22
2.498446249174815
 32
0.0
 13
14.53781821627622
 23
2.468540080696555
 33
0.0
  0
SOLID
  5
5A3A
330
18
100
AcDbEntity
  8
0
370
    13
100
AcDbTrace
 10
14.03030180264618
 20
2.517497586131336
 30
0.0
 11
14.25041120264618
 21
2.517497586131336
 31
0.0
 12
14.03030180264618
 22
2.474261811131337
 32
0.0
 13
14.25041120264618
 23
2.474261811131337
 33
0.0
  0
LWPOLYLINE
  5
5A3B
330
18
100
AcDbEntity
  8
0
370
    13
100
AcDbPolyline
 90
        4
 70
     1
 43
0.0104814
 10
14.52402024739717
 20
2.444996620445319
 42
0.2285268323977459
 10
14.5252443002824
 20
2.326021752009645
 42
0.6230043105321781
 10
14.65130319986161
 20
2.326419477316846
 42
0.2290062495557326
 10
14.65166843198482
 20
2.445515668241113
 42
0.6323121992740218
  0
SOLID
  5
5A3C
330
18
100
AcDbEntity
  8
0
370
    13
100
AcDbTrace
 10
14.25041120264618
 20
2.517497586131336
 30
0.0
 11
14.30281820264618
 21
2.517497586131336
 31
0.0
 12
14.25041120264618
 22
2.255462586131336
 32
0.0
 13
14.30281820264618
 23
2.255462586131336
 33
0.0
  0
SOLID
  5
5A3D
330
18
100
AcDbEntity
  8
0
370
    13
100
AcDbTrace
 10
14.41156272764618
 20
2.517497586131336
 30
0.0
 11
14.46396972764618
 21
2.517497586131336
 31
0.0
 12
14.41156272764618
 22
2.255462586131336
 32
0.0
 13
14.46396972764618
 23
2.255462586131336
 33
0.0
  0
SOLID
  5
5A3E
330
18
100
AcDbEntity
  8
0
370
    13
100
AcDbTrace
 10
14.71300909850256
 20
2.255462586131336
 30
0.0
 11
14.71300909850256
 21
2.517497586131336
 31
0.0
 12
14.76653889437084
 22
2.255462586131336
 32
0.0
 13
14.76653889437084
 23
2.511788449336835
 33
0.0
  0
LINE
  5
5A3F
330
18
100
AcDbEntity
  8
0
370
    13
100
AcDbLine
 10
14.92646150264618
 20
2.255462586131337
 30
0.0
 11
15.11250635264619
 21
2.255462586131337
 31
0.0
  0
LINE
  5
5A40
330
18
100
AcDbEntity
  8
0
370
    13
100
AcDbLine
 10
15.10997771489618
 20
2.300008536131336
 30
0.0
 11
14.98148885264618
 21
2.300008536131336
 31
0.0
  0
SOLID
  5
5A41
330
18
100
AcDbEntity
  8
0
370
    13
100
AcDbTrace
 10
14.11415300264619
 20
2.255462586131337
 30
0.0
 11
14.16656000264618
 21
2.255462586131337
 31
0.0
 12
14.11415300264619
 22
2.474261811131337
 32
0.0
 13
14.16656000264618
 23
2.474261811131337
 33
0.0
  0
SOLID
  5
5A42
330
18
100
AcDbEntity
  8
0
370
    13
100
AcDbTrace
 10
14.41156272764618
 20
2.415303936131336
 30
0.0
 11
14.30281820264618
 21
2.415303936131336
 31
0.0
 12
14.41156272764618
 22
2.370757986131337
 32
0.0
 13
14.30281820264618
 23
2.370757986131337
 33
0.0
  0
LWPOLYLINE
  5
5A43
330
18
100
AcDbEntity
  8
0
370
    13
100
AcDbPolyline
 90
        2
 70
     0
 43
0.0104814
 10
14.70285880008668
 20
2.344482536601264
 42
0.1406948172011772
 10
14.70090750849396
 20
2.436925369059132
 42
0.1406948172011772
  0
SOLID
  5
5A44
330
18
100
AcDbEntity
  8
0
370
    13
100
AcDbTrace
 10
14.70991154253787
 20
2.397097567109597
 30
0.0
 11
14.66432550001913
 21
2.401512057894096
 31
0.0
 12
14.68785378002881
 22
2.471408161981998
 32
0.0
 13
14.64888506626278
 23
2.453014450379919
 33
0.0
  0
LWPOLYLINE
  5
5A45
330
18
100
AcDbEntity
  8
0
370
    13
100
AcDbPolyline
 90
        2
 70
     0
 43
0.0104814
 10
14.47546412469451
 20
2.435594318890266
 42
0.1430540650207981
 10
14.47502729388522
 20
2.342083503530088
 42
0.1430540650207981
  0
SOLID
  5
5A46
330
18
100
AcDbEntity
  8
0
370
    13
100
AcDbTrace
 10
14.48247328488984
 20
2.458571357870467
 30
0.0
 11
14.52010783823258
 21
2.431988097000902
 31
0.0
 12
14.46727615493814
 22
2.38606134014835
 32
0.0
 13
14.50992116245567
 23
2.382382597827934
 33
0.0
  0
SOLID
  5
5A47
330
18
100
AcDbEntity
  8
0
370
    13
100
AcDbTrace
 10
14.588593848738
 20
2.254362365077462
 30
0.0
 11
14.588593848738
 21
2.287471045961204
 31
0.0
 12
14.65697291251611
 22
2.277906315928123
 32
0.0
 13
14.63859144375855
 23
2.302921763706951
 33
0.0
  0
SOLID
  5
5A48
330
18
100
AcDbEntity
  8
0
370
    13
100
AcDbTrace
 10
14.486392882446
 20
2.311014996811866
 30
0.0
 11
14.52389107871141
 21
2.324994217629446
 31
0.0
 12
14.54153728871866
 22
2.263191346646459
 32
0.0
 13
14.56065401622652
 23
2.290414039817536
 33
0.0
  0
SOLID
  5
5A49
330
18
100
AcDbEntity
  8
0
370
    13
100
AcDbTrace
 10
14.54153728871866
 20
2.263191346646459
 30
0.0
 11
14.56065401622652
 21
2.290414039817536
 31
0.0
 12
14.588593848738
 22
2.254362365077462
 32
0.0
 13
14.588593848738
 23
2.287471045961204
 33
0.0
  0
LWPOLYLINE
  5
5A4A
330
18
100
AcDbEntity
  8
0
370
    13
100
AcDbPolyline
 90
        2
 70
     0
 43
0.0104814
 10
14.47502729388522
 20
2.342083503530088
 42
0.7616390336395551
 10
14.70285880008668
 20
2.344482536601264
 42
0.7616390336395551
  0
SOLID
  5
5A4B
330
18
100
AcDbEntity
  8
0
370
    13
100
AcDbTrace
 10
14.46727615493814
 20
2.38606134014835
 30
0.0
 11
14.50992116245567
 21
2.382382597827934
 31
0.0
 12
14.486392882446
 22
2.311014996811866
 32
0.0
 13
14.52389107871141
 23
2.324994217629446
 33
0.0
  0
SOLID
  5
5A4C
330
18
100
AcDbEntity
  8
0
370
    13
100
AcDbTrace
 10
14.65697291251611
 20
2.277906315928123
 30
0.0
 11
14.63859144375855
 21
2.302921763706951
 31
0.0
 12
14.69373585003122
 22
2.319108229916781
 32
0.0
 13
14.66285498251853
 23
2.351481162336441
 33
0.0
  0
SOLID
  5
5A4D
330
18
100
AcDbEntity
  8
0
370
    13
100
AcDbTrace
 10
14.69373585003122
 20
2.319108229916781
 30
0.0
 11
14.66285498251853
 21
2.351481162336441
 31
0.0
 12
14.70991154253787
 22
2.397097567109597
 32
0.0
 13
14.66432550001913
 23
2.401512057894096
 33
0.0
  0
SOLID
  5
5A4E
330
18
100
AcDbEntity
  8
0
370
    13
100
AcDbTrace
 10
14.87932225026575
 20
2.439729495642663
 30
0.0
 11
14.92001092702407
 21
2.426700446952215
 31
0.0
 12
14.87389709336464
 22
2.461444576793407
 32
0.0
 13
14.91458577012296
 23
2.482616780915384
 33
0.0
  0
SOLID
  5
5A4F
330
18
100
AcDbEntity
  8
0
370
    13
100
AcDbTrace
 10
14.76653889437084
 20
2.399686278919876
 30
0.0
 11
14.76653889437084
 21
2.36018581116814
 31
0.0
 12
14.83350507409793
 22
2.399686278919876
 32
0.0
 13
14.81757654080889
 23
2.36018581116814
 33
0.0
  0
SOLID
  5
5A50
330
18
100
AcDbEntity
  8
0
370
    13
100
AcDbTrace
 10
14.84044033948886
 20
2.362151702374647
 30
0.0
 11
14.86614691446446
 21
2.380355417375364
 31
0.0
 12
14.81757654080889
 22
2.36018581116814
 32
0.0
 13
14.83350507409793
 23
2.399686278919876
 33
0.0
  0
SOLID
  5
5A51
330
18
100
AcDbEntity
  8
0
370
    13
100
AcDbTrace
 10
14.85465917894023
 20
2.348000403239088
 30
0.0
 11
14.88300006167914
 21
2.367852234524531
 31
0.0
 12
14.84044033948886
 22
2.362151702374647
 32
0.0
 13
14.86614691446446
 23
2.380355417375364
 33
0.0
  0
SOLID
  5
5A52
330
18
100
AcDbEntity
  8
0
370
    13
100
AcDbTrace
 10
14.86105881997068
 20
2.398760312599209
 30
0.0
 11
14.8810844778046
 21
2.389424156424391
 31
0.0
 12
14.87932225026575
 22
2.439729495642663
 32
0.0
 13
14.92001092702407
 23
2.426700446952215
 33
0.0
  0
SOLID
  5
5A53
330
18
100
AcDbEntity
  8
0
370
    13
100
AcDbTrace
 10
14.86105881997068
 20
2.398760312599209
 30
0.0
 11
14.8810844778046
 21
2.389424156424391
 31
0.0
 12
14.83350507409793
 22
2.399686278919876
 32
0.0
 13
14.86614691446446
 23
2.380355417375364
 33
0.0
  0
LWPOLYLINE
  5
5A54
330
18
100
AcDbEntity
  8
0
370
    13
100
AcDbPolyline
 90
        2
 70
     0
 43
0.0104814
 10
14.91597124086369
 20
2.272311824583561
 42
0.0950669764493849
 10
14.92015690490229
 20
2.258170794898105
 42
0.1404915454274296
  0
SOLID
  5
5A55
330
18
100
AcDbEntity
  8
0
370
    13
100
AcDbTrace
 10
14.87404461873062
 20
2.255462586131336
 30
0.0
 11
14.92806883275265
 21
2.255462586131336
 31
0.0
 12
14.87156956928777
 22
2.26274883580767
 32
0.0
 13
14.92017509034986
 23
2.267857647445038
 33
0.0
  0
LWPOLYLINE
  5
5A56
330
18
100
AcDbEntity
  8
0
370
    13
100
AcDbPolyline
 90
        2
 70
     0
 43
0.0104814
 10
14.87491980210343
 20
2.269287899109138
 42
0.1148360225250129
 10
14.87853203930082
 20
2.258169612750358
 42
0.1148360225250129
  0
SOLID
  5
5A57
330
18
100
AcDbEntity
  8
0
370
    13
100
AcDbTrace
 10
14.86565356538485
 20
2.316051533604086
 30
0.0
 11
14.86969822948603
 21
2.268840555962012
 31
0.0
 12
14.91544284242362
 22
2.331120750135454
 32
0.0
 13
14.92118668553889
 23
2.272825705240911
 33
0.0
  0
SOLID
  5
5A58
330
18
100
AcDbEntity
  8
0
370
    13
100
AcDbTrace
 10
14.87156956928777
 20
2.26274883580767
 30
0.0
 11
14.92017509034986
 21
2.267857647445038
 31
0.0
 12
14.86969822948603
 22
2.268840555962012
 32
0.0
 13
14.92118668553889
 23
2.272825705240911
 33
0.0
  0
LWPOLYLINE
  5
5A59
330
18
100
AcDbEntity
  8
0
370
    13
100
AcDbPolyline
 90
        2
 70
     0
 43
0.0104814
 10
14.91022739774843
 20
2.330606869478105
 42
0.3581345567762107
 10
14.86563951953554
 20
2.375139337729105
 42
0.3581345567762107
  0
LWPOLYLINE
  5
5A5A
330
18
100
AcDbEntity
  8
0
370
    13
100
AcDbPolyline
 90
        2
 70
     0
 43
0.0104814
 10
14.87087513800224
 20
2.316498876751212
 42
0.3893977487990803
 10
14.81757654080889
 20
2.36542651116814
 42
0.3893977487990803
  0
SOLID
  5
5A5B
330
18
100
AcDbEntity
  8
0
370
    13
100
AcDbTrace
 10
14.86565356538485
 20
2.316051533604086
 30
0.0
 11
14.91544284242362
 21
2.331120750135454
 31
0.0
 12
14.86670405410427
 22
2.331693541826044
 32
0.0
 13
14.90921537821265
 23
2.346582415290127
 33
0.0
  0
SOLID
  5
5A5C
330
18
100
AcDbEntity
  8
0
370
    13
100
AcDbTrace
 10
14.86670405410427
 20
2.331693541826044
 30
0.0
 11
14.90921537821265
 21
2.346582415290127
 31
0.0
 12
14.85465917894023
 22
2.348000403239088
 32
0.0
 13
14.88300006167914
 23
2.367852234524531
 33
0.0
  0
LWPOLYLINE
  5
5A5D
330
18
100
AcDbEntity
  8
0
370
    13
100
AcDbPolyline
 90
        7
 70
     0
 43
0.0
 10
15.61870560631762
 20
2.419866265182064
 42
0.0019568917075044
 10
15.69374351293166
 20
2.404578858603103
 42
-0.2136964031287707
 10
15.74477850139025
 20
2.368908269974074
 42
-0.2075585583027768
 10
15.75183595513862
 20
2.315099842159789
 42
-0.2311984101377718
 10
15.70219527232426
 20
2.259997681822924
 42
-0.176335766587305
 10
15.59857960989478
 20
2.256473672392217
 42
-0.2115906095274752
 10
15.54348309252508
 20
2.305990850964811
  0
LWPOLYLINE
  5
5A5E
330
18
100
AcDbEntity
  8
0
370
    13
100
AcDbPolyline
 90
        3
 70
     0
 43
0.0
 10
15.33916662764618
 20
2.255462586131336
 10
15.28413927764619
 20
2.255462586131336
 10
15.26678376285634
 20
2.311800111131336
  0
LINE
  5
5A5F
330
18
100
AcDbEntity
  8
0
370
    13
100
AcDbLine
 10
15.25467526416575
 20
2.351105361131335
 30
0.0
 11
15.21666526514619
 21
2.474489155616477
 31
0.0
  0
LINE
  5
5A60
330
18
100
AcDbEntity
  8
0
370
    13
100
AcDbLine
 10
15.17865526612663
 20
2.351105361131335
 30
0.0
 11
15.25467526416575
 21
2.351105361131335
 31
0.0
  0
LINE
  5
5A61
330
18
100
AcDbEntity
  8
0
370
    13
100
AcDbLine
 10
15.21666526514619
 20
2.474489155616477
 30
0.0
 11
15.17865526612663
 21
2.351105361131335
 31
0.0
  0
LWPOLYLINE
  5
5A62
330
18
100
AcDbEntity
  8
0
370
    13
100
AcDbPolyline
 90
        4
 70
     0
 43
0.0
 10
15.26678376285634
 20
2.311800111131336
 10
15.16654676743603
 20
2.311800111131336
 10
15.14919125264619
 20
2.255462586131336
 10
15.09416390264618
 20
2.255462586131336
  0
ARC
  5
5A63
330
18
100
AcDbEntity
  8
0
370
    13
100
AcDbCircle
 10
15.45983494093842
 20
2.309403825740498
 30
0.0
 40
0.0940653841802545
100
AcDbArc
 50
41.8214311105379
 51
67.21116987831337
  0
ARC
  5
5A64
330
18
100
AcDbEntity
  8
0
370
    13
100
AcDbCircle
 10
15.45050332683973
 20
2.492604261131342
 30
0.0
 40
0.1067827813404871
100
AcDbArc
 50
295.3783953421117
 51
313.157562911559
  0
ARC
  5
5A65
330
18
100
AcDbEntity
  8
0
370
    13
100
AcDbCircle
 10
15.48933036743682
 20
2.451196244748515
 30
0.0
 40
0.050018682631104
100
AcDbArc
 50
313.1575629115595
 51
358.653260821401
  0
ARC
  5
5A66
330
18
100
AcDbEntity
  8
0
370
    13
100
AcDbCircle
 10
15.47999330792207
 20
2.327441058348393
 30
0.0
 40
0.0670154023022719
100
AcDbArc
 50
5.797666812800194
 51
41.82143111053831
  0
LINE
  5
5A67
330
18
100
AcDbEntity
  8
0
370
    13
100
AcDbLine
 10
15.38499457683974
 20
2.478192336131336
 30
0.0
 11
15.38499457683974
 21
2.412683586131335
 31
0.0
  0
LINE
  5
5A68
330
18
100
AcDbEntity
  8
0
370
    13
100
AcDbLine
 10
15.45463958881493
 20
2.372068161131337
 30
0.0
 11
15.38499457683974
 21
2.372068161131337
 31
0.0
  0
ARC
  5
5A69
330
18
100
AcDbEntity
  8
0
370
    13
100
AcDbCircle
 10
15.45125395215111
 20
2.445437961131336
 30
0.0
 40
0.032754375
100
AcDbArc
 50
270.0
 51
90.00000482967505
  0
LINE
  5
5A6A
330
18
100
AcDbEntity
  8
0
370
    13
100
AcDbLine
 10
15.38499457683974
 20
2.412683586131335
 30
0.0
 11
15.45125395215111
 21
2.412683586131335
 31
0.0
  0
LINE
  5
5A6B
330
18
100
AcDbEntity
  8
0
370
    13
100
AcDbLine
 10
15.45125394939012
 20
2.478192336131336
 30
0.0
 11
15.38499457683974
 21
2.478192336131336
 31
0.0
  0
ARC
  5
5A6C
330
18
100
AcDbEntity
  8
0
370
    13
100
AcDbCircle
 10
15.44788297683973
 20
2.342599732319962
 30
0.0
 40
0.0465217211886261
100
AcDbArc
 50
270.0
 51
313.2275081247473
  0
ARC
  5
5A6D
330
18
100
AcDbEntity
  8
0
370
    13
100
AcDbCircle
 10
15.45967455183974
 20
2.366551910343223
 30
0.0
 40
0.1110893242118861
100
AcDbArc
 50
269.9999999999952
 51
297.4526478761186
  0
ARC
  5
5A6E
330
18
100
AcDbEntity
  8
0
370
    13
100
AcDbCircle
 10
15.47999330792207
 20
2.327441058348393
 30
0.0
 40
0.0670154023022719
100
AcDbArc
 50
297.4526478761237
 51
341.3323115150402
  0
LINE
  5
5A6F
330
18
100
AcDbEntity
  8
0
370
    13
100
AcDbLine
 10
15.38499457683974
 20
2.296078011131337
 30
0.0
 11
15.44788297683973
 21
2.296078011131337
 31
0.0
  0
LINE
  5
5A70
330
18
100
AcDbEntity
  8
0
370
    13
100
AcDbLine
 10
15.33258757683973
 20
2.255462586131337
 30
0.0
 11
15.45967455183973
 21
2.255462586131337
 31
0.0
  0
ARC
  5
5A71
330
18
100
AcDbEntity
  8
0
370
    13
100
AcDbCircle
 10
15.45463958881493
 20
2.335411590285651
 30
0.0
 40
0.0366565708456863
100
AcDbArc
 50
313.2275081247476
 51
90.0
  0
LINE
  5
5A72
330
18
100
AcDbEntity
  8
0
370
    13
100
AcDbLine
 10
15.38499457683974
 20
2.372068161131337
 30
0.0
 11
15.38499457683974
 21
2.296078011131337
 31
0.0
  0
SOLID
  5
5A73
330
18
100
AcDbEntity
  8
0
370
    13
100
AcDbTrace
 10
15.79353454971941
 20
2.401034400922116
 30
0.0
 11
15.91679581371941
 21
2.401034400922116
 31
0.0
 12
15.79353454971941
 22
2.375149535482116
 32
0.0
 13
15.91679581371941
 23
2.375149535482116
 33
0.0
  0
LWPOLYLINE
  5
5A74
330
18
100
AcDbEntity
  8
0
370
    13
100
AcDbPolyline
 90
        2
 70
     0
 43
0.00493045056
 10
15.82837010359392
 20
2.420374273631635
 42
0.2706611322925477
 10
15.89837348150257
 20
2.431283286226639
 42
0.2706611322925477
  0
SOLID
  5
5A75
330
18
100
AcDbEntity
  8
0
370
    13
100
AcDbTrace
 10
15.85883331064154
 20
2.435671598797031
 30
0.0
 11
15.86018872233142
 21
2.414676701103957
 31
0.0
 12
15.89161641999545
 22
2.446098045127957
 32
0.0
 13
15.90085107302768
 23
2.430883480436575
 33
0.0
  0
SOLID
  5
5A76
330
18
100
AcDbEntity
  8
0
370
    13
100
AcDbTrace
 10
15.79353455745089
 20
2.248806741057628
 30
0.0
 11
15.79353455745089
 21
2.274691606497628
 31
0.0
 12
15.91679582145089
 22
2.248806741057628
 32
0.0
 13
15.91679582145089
 23
2.274691606497628
 33
0.0
  0
SOLID
  5
5A77
330
18
100
AcDbEntity
  8
0
370
    13
100
AcDbTrace
 10
15.91679581371941
 20
2.296262326522116
 30
0.0
 11
15.79353454971941
 21
2.296262326522116
 31
0.0
 12
15.91679581371941
 22
2.322147191962116
 32
0.0
 13
15.79353454971941
 23
2.322147191962116
 33
0.0
  0
SOLID
  5
5A78
330
18
100
AcDbEntity
  8
0
370
    13
100
AcDbTrace
 10
15.79353454971941
 20
2.322763498282116
 30
0.0
 11
15.91679312807597
 21
2.400370751321433
 31
0.0
 12
15.79354373506936
 22
2.298062498281336
 32
0.0
 13
15.91679581371941
 23
2.374533229162116
 33
0.0
  0
SOLID
  5
5A79
330
18
100
AcDbEntity
  8
0
370
    13
100
AcDbTrace
 10
15.81003848980603
 20
2.456440744902008
 30
0.0
 11
15.7951289612174
 21
2.450345452023373
 31
0.0
 12
15.83353229243054
 22
2.43770336308991
 32
0.0
 13
15.82088178332503
 23
2.422578006687372
 33
0.0
  0
SOLID
  5
5A7A
330
18
100
AcDbEntity
  8
0
370
    13
100
AcDbTrace
 10
15.83353229243054
 20
2.43770336308991
 30
0.0
 11
15.82088178332503
 21
2.422578006687372
 31
0.0
 12
15.85883331064154
 22
2.435671598797031
 32
0.0
 13
15.86018872233142
 23
2.414676701103957
 33
0.0
  0
LWPOLYLINE
  5
5A7B
330
18
100
AcDbEntity
  8
0
370
    13
100
AcDbPolyline
 90
        2
 70
     0
 43
0.00493045056
 10
15.89837348150257
 20
2.431283286226639
 42
0.1790006504245718
 10
15.91654691965104
 20
2.462067105502534
 42
0.1790006504245718
  0
SOLID
  5
5A7C
330
18
100
AcDbEntity
  8
0
370
    13
100
AcDbTrace
 10
15.89161641999545
 20
2.446098045127957
 30
0.0
 11
15.90085107302768
 21
2.430883480436575
 31
0.0
 12
15.90234858433021
 22
2.470291697178187
 32
0.0
 13
15.91832203822379
 23
2.462310286192544
 33
0.0
  0
LWPOLYLINE
  5
5A7D
330
18
100
AcDbEntity
  8
0
370
    13
100
AcDbPolyline
 90
        2
 70
     0
 43
0.0104814
 10
14.85764617023569
 20
2.512256886131337
 10
14.71300909850256
 20
2.512256886131337
  0
LINE
  5
5A7E
330
18
100
AcDbEntity
  8
0
370
    13
100
AcDbLine
 10
14.98148885264618
 20
2.517497586131336
 30
0.0
 11
14.92646150264618
 21
2.517497586131336
 31
0.0
  0
ARC
  5
5A7F
330
18
100
AcDbEntity
  8
0
370
    13
100
AcDbCircle
 10
15.45501087082988
 20
2.409742329861524
 30
0.0
 40
0.1077552562698128
100
AcDbArc
 50
58.67020583628413
 51
90.00000000000101
  0
LINE
  5
5A80
330
18
100
AcDbEntity
  8
0
370
    13
100
AcDbLine
 10
15.45501087082988
 20
2.517497586131336
 30
0.0
 11
15.33258757683973
 21
2.517497586131336
 31
0.0
  0
SOLID
  5
5A81
330
18
100
AcDbEntity
  8
0
370
    13
100
AcDbTrace
 10
15.89585936868593
 20
2.491741739202103
 30
0.0
 11
15.91108406692825
 21
2.501967922027458
 31
0.0
 12
15.8803806759669
 22
2.500859243207885
 32
0.0
 13
15.88300191480824
 23
2.523495035158064
 33
0.0
  0
LWPOLYLINE
  5
5A82
330
18
100
AcDbEntity
  8
0
370
    13
100
AcDbPolyline
 90
        2
 70
     0
 43
0.00493045056
 10
15.91225178861954
 20
2.496806460126451
 42
0.2619660936757589
 10
15.8773345572074
 20
2.522442069484772
 42
0.2656465770789468
  0
SOLID
  5
5A83
330
18
100
AcDbEntity
  8
0
370
    13
100
AcDbTrace
 10
15.8803806759669
 20
2.500859243207885
 30
0.0
 11
15.88300191480824
 21
2.523495035158064
 31
0.0
 12
15.8769940412474
 22
2.500030566978762
 32
0.0
 13
15.8769940412474
 23
2.524962330760263
 33
0.0
  0
LWPOLYLINE
  5
5A84
330
18
100
AcDbEntity
  8
0
370
    13
100
AcDbPolyline
 90
        2
 70
     0
 43
0.00493045056
 10
15.83104605364547
 20
2.520459868369472
 42
0.2841209316902218
 10
15.79543783155204
 20
2.490673265252777
 42
0.2888447634665965
  0
SOLID
  5
5A85
330
18
100
AcDbEntity
  8
0
370
    13
100
AcDbTrace
 10
15.82291490085985
 20
2.499107795052449
 30
0.0
 11
15.81049029370266
 21
2.512652890338303
 31
0.0
 12
15.82811793283066
 22
2.500440457653153
 32
0.0
 13
15.8265147577136
 23
2.52177762388302
 33
0.0
  0
SOLID
  5
5A86
330
18
100
AcDbEntity
  8
0
370
    13
100
AcDbTrace
 10
15.82811793283066
 20
2.500440457653153
 30
0.0
 11
15.8265147577136
 21
2.52177762388302
 31
0.0
 12
15.83150143558184
 22
2.498894752717687
 32
0.0
 13
15.83150143558184
 23
2.523008868646434
 33
0.0
  0
LINE
  5
5FB1
330
18
100
AcDbEntity
  8
0
100
AcDbLine
 39
0.27
 10
3.344898358468098
 20
7.070254654303912
 30
0.0
 11
6.384039863835162
 21
7.070254654303912
 31
0.0
  0
LINE
  5
5FB2
330
18
100
AcDbEntity
  8
0
100
AcDbLine
 39
0.27
 10
6.169076196382368
 20
7.11472989584587
 30
0.0
 11
3.559862025920891
 21
7.11472989584587
 31
0.0
  0
TEXT
  5
5FD6
330
18
100
AcDbEntity
  8
0
100
AcDbText
 10
3.539364101565213
 20
6.889423380005759
 30
0.0
 40
0.09
  1
SMA COAX CABLE SOLD SEPARATELY
100
AcDbText
  0
TEXT
  5
5FD8
330
18
100
AcDbEntity
  8
0
100
AcDbText
 10
3.874469111151629
 20
7.179617401830594
 30
0.0
 40
0.12
  1
SM05PD5B ASSEMBLY
 72
     1
 11
4.864469111151629
 21
7.239617401830593
 31
0.0
100
AcDbText
 73
     2
  0
TEXT
  5
6008
330
18
100
AcDbEntity
  8
0
100
AcDbText
 10
3.322873919043802
 20
9.890116072880584
 30
0.0
 40
0.1
  1
SMA CONNECTOR
 72
     2
 11
4.589540585710468
 21
9.940116072880584
 31
0.0
100
AcDbText
 73
     2
  0
LINE
  5
6184
330
18
100
AcDbEntity
  8
0
100
AcDbLine
 39
0.27
 10
6.16907619638237
 20
2.811725309067754
 30
0.0
 11
3.559862025920892
 21
2.811725309067754
 31
0.0
  0
LINE
  5
6185
330
18
100
AcDbEntity
  8
0
100
AcDbLine
 39
0.27
 10
3.344898358468099
 20
2.767250067525797
 30
0.0
 11
6.384039863835162
 21
2.767250067525797
 31
0.0
  0
TEXT
  5
6186
330
18
100
AcDbEntity
  8
0
100
AcDbText
 10
3.924469111151631
 20
2.870342346028563
 30
0.0
 40
0.12
  1
X-X SECTION VIEW
 72
     1
 11
4.864469111151631
 21
2.930342346028563
 31
0.0
100
AcDbText
 73
     2
  0
MTEXT
  5
61C8
330
18
100
AcDbEntity
  8
0
100
AcDbMText
 10
15.36985522531995
 20
1.463693961496995
 30
0.0
 40
0.0864
 41
0.14
 71
     1
 72
     1
  1
HS
 73
     1
 44
1.0
  0
MTEXT
  5
61D8
330
18
100
AcDbEntity
  8
0
100
AcDbMText
 10
16.3127109568219
 20
1.459566793415478
 30
0.0
 40
0.0864
 41
0.14
 71
     1
 72
     1
  1
TC
 73
     1
 44
1.0
  0
LINE
  5
6517
330
18
100
AcDbEntity
  8
0
  6
Continuous
100
AcDbLine
 10
6.544250324507421
 20
9.674785986990672
 30
0.0
 11
6.544250324507421
 21
10.17478598699067
 31
0.0
  0
LINE
  5
6518
330
18
100
AcDbEntity
  8
0
  6
Continuous
100
AcDbLine
 10
7.634250324507421
 20
9.674785986990672
 30
0.0
 11
7.634250324507421
 21
10.17478598699067
 31
0.0
  0
LINE
  5
6519
330
18
100
AcDbEntity
  8
0
  6
Continuous
100
AcDbLine
 10
6.364250324507422
 20
10.13478598699067
 30
0.0
 11
6.184250324507421
 21
10.13478598699067
 31
0.0
  0
LINE
  5
651A
330
18
100
AcDbEntity
  8
0
  6
Continuous
100
AcDbLine
 10
7.814250324507421
 20
10.13478598699067
 30
0.0
 11
7.994250324507421
 21
10.13478598699067
 31
0.0
  0
SOLID
  5
651B
330
18
100
AcDbEntity
  8
0
  6
Continuous
100
AcDbTrace
 10
6.364250324507422
 20
10.16478598699067
 30
0.0
 11
6.364250324507422
 21
10.10478598699067
 31
0.0
 12
6.544250324507421
 22
10.13478598699067
 32
0.0
 13
6.544250324507421
 23
10.13478598699067
 33
0.0
  0
SOLID
  5
651C
330
18
100
AcDbEntity
  8
0
  6
Continuous
100
AcDbTrace
 10
7.814250324507421
 20
10.16478598699067
 30
0.0
 11
7.814250324507421
 21
10.10478598699067
 31
0.0
 12
7.634250324507421
 22
10.13478598699067
 32
0.0
 13
7.634250324507421
 23
10.13478598699067
 33
0.0
  0
MTEXT
  5
651D
330
18
100
AcDbEntity
  8
0
  6
Continuous
100
AcDbMText
 10
7.089250324507421
 20
10.13478598699067
 30
0.0
 40
0.1
 41
0.0
 71
     5
 72
     1
  1
0.55"\P(14.0mm)
 73
     1
 44
1.0
  0
LINE
  5
65EA
330
18
100
AcDbEntity
  8
0
100
AcDbLine
 10
6.544250324507421
 20
8.564785986990672
 30
0.0
 11
7.634250324507421
 21
8.564785986990672
 31
0.0
  0
LINE
  5
65EB
330
18
100
AcDbEntity
  8
0
100
AcDbLine
 10
7.634250324507421
 20
9.634785986990673
 30
0.0
 11
6.544250324507421
 21
9.634785986990673
 31
0.0
  0
LINE
  5
65EC
330
18
100
AcDbEntity
  8
0
100
AcDbLine
 10
6.884250324507424
 20
9.607785986990672
 30
0.0
 11
6.884250324507424
 21
8.591785986990673
 31
0.0
  0
LINE
  5
65ED
330
18
100
AcDbEntity
  8
0
100
AcDbLine
 10
6.984250324507424
 20
8.591785986990673
 30
0.0
 11
6.984250324507423
 21
9.607785986990672
 31
0.0
  0
LINE
  5
65EE
330
18
100
AcDbEntity
  8
0
100
AcDbLine
 10
7.084250324507424
 20
9.607785986990672
 30
0.0
 11
7.084250324507424
 21
8.591785986990673
 31
0.0
  0
LINE
  5
65EF
330
18
100
AcDbEntity
  8
0
100
AcDbLine
 10
7.184250324507423
 20
8.591785986990673
 30
0.0
 11
7.184250324507424
 21
9.607785986990672
 31
0.0
  0
LINE
  5
65F0
330
18
100
AcDbEntity
  8
0
100
AcDbLine
 10
7.284250324507422
 20
9.607785986990672
 30
0.0
 11
7.284250324507422
 21
8.591785986990673
 31
0.0
  0
LINE
  5
65F1
330
18
100
AcDbEntity
  8
0
100
AcDbLine
 10
7.384250324507422
 20
8.591785986990673
 30
0.0
 11
7.384250324507422
 21
9.607785986990672
 31
0.0
  0
LINE
  5
65F2
330
18
100
AcDbEntity
  8
0
100
AcDbLine
 10
6.934250324507423
 20
8.699785986990672
 30
0.0
 11
6.934250324507422
 21
9.499785986990673
 31
0.0
  0
LINE
  5
65F3
330
18
100
AcDbEntity
  8
0
100
AcDbLine
 10
7.034250324507422
 20
9.499785986990673
 30
0.0
 11
7.034250324507422
 21
8.699785986990672
 31
0.0
  0
LINE
  5
65F4
330
18
100
AcDbEntity
  8
0
100
AcDbLine
 10
7.134250324507423
 20
8.699785986990672
 30
0.0
 11
7.134250324507422
 21
9.499785986990673
 31
0.0
  0
LINE
  5
65F5
330
18
100
AcDbEntity
  8
0
100
AcDbLine
 10
7.234250324507423
 20
9.499785986990673
 30
0.0
 11
7.234250324507423
 21
8.699785986990672
 31
0.0
  0
LINE
  5
65F6
330
18
100
AcDbEntity
  8
0
100
AcDbLine
 10
7.334250324507422
 20
8.699785986990672
 30
0.0
 11
7.334250324507422
 21
9.499785986990673
 31
0.0
  0
LINE
  5
65F7
330
18
100
AcDbEntity
  8
0
100
AcDbLine
 10
7.434250324507422
 20
8.699785986990672
 30
0.0
 11
7.434250324507423
 21
9.499785986990673
 31
0.0
  0
LINE
  5
65F8
330
18
100
AcDbEntity
  8
0
100
AcDbLine
 10
7.484250324507422
 20
8.591785986990673
 30
0.0
 11
7.484250324507421
 21
9.607785986990672
 31
0.0
  0
LINE
  5
65F9
330
18
100
AcDbEntity
  8
0
100
AcDbLine
 10
7.534250324507421
 20
8.699785986990672
 30
0.0
 11
7.534250324507421
 21
9.499785986990673
 31
0.0
  0
LINE
  5
65FA
330
18
100
AcDbEntity
  8
0
100
AcDbLine
 10
7.584250324507421
 20
8.591785986990673
 30
0.0
 11
7.584250324507421
 21
9.607785986990672
 31
0.0
  0
LINE
  5
65FB
330
18
100
AcDbEntity
  8
0
100
AcDbLine
 10
7.634250324507421
 20
8.564785986990672
 30
0.0
 11
7.634250324507421
 21
9.634785986990673
 31
0.0
  0
LINE
  5
6606
330
18
100
AcDbEntity
  8
0
100
AcDbLine
 10
6.584250324507426
 20
8.591785986990673
 30
0.0
 11
6.584250324507426
 21
9.607785986990672
 31
0.0
  0
LINE
  5
6607
330
18
100
AcDbEntity
  8
0
100
AcDbLine
 10
6.684250324507424
 20
9.607785986990672
 30
0.0
 11
6.684250324507425
 21
8.591785986990673
 31
0.0
  0
LINE
  5
6608
330
18
100
AcDbEntity
  8
0
100
AcDbLine
 10
6.784250324507424
 20
8.591785986990673
 30
0.0
 11
6.784250324507424
 21
9.607785986990672
 31
0.0
  0
LINE
  5
6609
330
18
100
AcDbEntity
  8
0
100
AcDbLine
 10
6.634250324507421
 20
9.499785986990673
 30
0.0
 11
6.634250324507421
 21
8.699785986990672
 31
0.0
  0
LINE
  5
660A
330
18
100
AcDbEntity
  8
0
100
AcDbLine
 10
6.734250324507423
 20
8.699785986990672
 30
0.0
 11
6.734250324507422
 21
9.499785986990673
 31
0.0
  0
LINE
  5
660B
330
18
100
AcDbEntity
  8
0
100
AcDbLine
 10
6.834250324507422
 20
9.499785986990673
 30
0.0
 11
6.834250324507422
 21
8.699785986990672
 31
0.0
  0
LINE
  5
660C
330
18
100
AcDbEntity
  8
0
100
AcDbLine
 10
6.544250324507421
 20
9.634785986990673
 30
0.0
 11
6.544250324507421
 21
8.564785986990672
 31
0.0
  0
LINE
  5
660E
330
18
100
AcDbEntity
  8
0
100
AcDbLine
 10
6.349870671600379
 20
9.449785986990672
 30
0.0
 11
6.349870671600379
 21
8.749785986990673
 31
0.0
  0
LINE
  5
660F
330
18
100
AcDbEntity
  8
0
100
AcDbLine
 10
6.543870671600378
 20
8.659785986990675
 30
0.0
 11
6.543870671600378
 21
9.539785986990672
 31
0.0
  0
LINE
  5
6610
330
18
100
AcDbEntity
  8
0
100
AcDbLine
 10
6.473870671600382
 20
8.659785986990677
 30
0.0
 11
6.473870671600378
 21
9.539785986990674
 31
0.0
  0
LINE
  5
6611
330
18
100
AcDbEntity
  8
0
100
AcDbLine
 10
6.299870671600379
 20
9.345785986990673
 30
0.0
 11
6.349870671600379
 21
9.345785986990673
 31
0.0
  0
LINE
  5
6612
330
18
100
AcDbEntity
  8
0
100
AcDbLine
 10
6.349870671600379
 20
9.269785986990674
 30
0.0
 11
6.47387067160038
 21
9.269785986990674
 31
0.0
  0
LINE
  5
6613
330
18
100
AcDbEntity
  8
0
100
AcDbLine
 10
6.473870671600378
 20
9.449785986990672
 30
0.0
 11
6.349870671600379
 21
9.449785986990672
 31
0.0
  0
LINE
  5
6614
330
18
100
AcDbEntity
  8
0
100
AcDbLine
 10
6.473870671600378
 20
9.539785986990674
 30
0.0
 11
6.543870671600378
 21
9.539785986990672
 31
0.0
  0
LINE
  5
6615
330
18
100
AcDbEntity
  8
0
100
AcDbLine
 10
6.299870671600379
 20
8.853785986990672
 30
0.0
 11
6.349870671600379
 21
8.853785986990672
 31
0.0
  0
LINE
  5
6616
330
18
100
AcDbEntity
  8
0
100
AcDbLine
 10
6.47387067160038
 20
8.929785986990674
 30
0.0
 11
6.349870671600379
 21
8.929785986990674
 31
0.0
  0
LINE
  5
6617
330
18
100
AcDbEntity
  8
0
100
AcDbLine
 10
6.349870671600379
 20
8.749785986990673
 30
0.0
 11
6.473870671600378
 21
8.749785986990673
 31
0.0
  0
LINE
  5
6619
330
18
100
AcDbEntity
  8
0
100
AcDbLine
 10
6.473870671600382
 20
8.659785986990677
 30
0.0
 11
6.543870671600378
 21
8.659785986990675
 31
0.0
  0
LINE
  5
661E
330
18
100
AcDbEntity
  8
0
100
AcDbLine
 10
6.099870671600379
 20
9.409785986990673
 30
0.0
 11
5.639870671600379
 21
9.409785986990673
 31
0.0
  0
LINE
  5
661F
330
18
100
AcDbEntity
  8
0
100
AcDbLine
 10
6.099870671600379
 20
8.789785986990672
 30
0.0
 11
5.639870671600379
 21
8.789785986990672
 31
0.0
  0
LINE
  5
6620
330
18
100
AcDbEntity
  8
0
100
AcDbLine
 10
6.099870671600379
 20
9.099785986990672
 30
0.0
 11
5.639870671600379
 21
9.099785986990672
 31
0.0
  0
LINE
  5
6621
330
18
100
AcDbEntity
  8
0
100
AcDbLine
 39
0.36
 10
1.959998784800684
 20
8.802663317210772
 30
0.0
 11
2.014601170479759
 21
8.605781531798641
 31
0.0
  0
LINE
  5
6622
330
18
100
AcDbEntity
  8
0
100
AcDbLine
 39
0.36
 10
2.352599444503451
 20
8.970848828127344
 30
0.0
 11
1.959998784800684
 21
8.802663317210772
 31
0.0
  0
LINE
  5
6623
330
18
100
AcDbEntity
  8
0
100
AcDbLine
 39
0.36
 10
1.513355393552815
 20
8.792609037553027
 30
0.0
 11
2.352599444503451
 21
8.970848828127344
 31
0.0
  0
LINE
  5
6624
330
18
100
AcDbEntity
  8
0
100
AcDbLine
 39
0.36
 10
1.915277510128998
 20
8.963916425362816
 30
0.0
 11
1.513355393552815
 21
8.792609037553027
 31
0.0
  0
LINE
  5
6625
330
18
100
AcDbEntity
  8
0
100
AcDbLine
 39
0.36
 10
1.870137079398249
 20
9.146822130035133
 30
0.0
 11
1.92112583198023
 21
8.962970151418664
 31
0.0
  0
ARC
  5
6626
330
18
100
AcDbEntity
  8
0
100
AcDbCircle
 39
0.36
 10
3.870251597406769
 20
-0.0101985160565281
 30
0.0
 40
8.992856861216777
100
AcDbArc
 50
88.79179908633771
 51
102.221108933891
  0
ARC
  5
6627
330
18
100
AcDbEntity
  8
0
100
AcDbCircle
 39
0.36
 10
3.84199015165343
 20
0.6481608615424257
 30
0.0
 40
8.575279640845669
100
AcDbArc
 50
88.54407339336919
 51
103.0201711654387
  0
LINE
  5
662C
330
18
100
AcDbEntity
  8
0
100
AcDbLine
 10
4.639870671600375
 20
8.939785986990672
 30
0.0
 11
4.059870671600377
 21
8.939785986990674
 31
0.0
  0
LINE
  5
662D
330
18
100
AcDbEntity
  8
0
100
AcDbLine
 10
4.639870671600382
 20
9.259785986990673
 30
0.0
 11
4.059870671600377
 21
9.259785986990673
 31
0.0
  0
LINE
  5
662E
330
18
100
AcDbEntity
  8
0
100
AcDbLine
 10
4.059870671600377
 20
9.259785986990673
 30
0.0
 11
4.059870671600377
 21
8.939785986990674
 31
0.0
  0
LINE
  5
662F
330
18
100
AcDbEntity
  8
0
100
AcDbLine
 10
4.059870671600377
 20
9.099785986990672
 30
0.0
 11
4.059870671600377
 21
8.999785986990673
 31
0.0
  0
LINE
  5
6630
330
18
100
AcDbEntity
  8
0
100
AcDbLine
 10
4.059870671600377
 20
9.099785986990672
 30
0.0
 11
4.059870671600377
 21
9.199785986990672
 31
0.0
  0
LINE
  5
6631
330
18
100
AcDbEntity
  8
0
100
AcDbLine
 10
5.519870671600378
 20
8.869785986990672
 30
0.0
 11
5.519870671600378
 21
9.329785986990673
 31
0.0
  0
LINE
  5
6632
330
18
100
AcDbEntity
  8
0
100
AcDbLine
 10
5.579870671600378
 20
8.839785986990673
 30
0.0
 11
5.579870671600378
 21
9.35978598699067
 31
0.0
  0
LINE
  5
6633
330
18
100
AcDbEntity
  8
0
100
AcDbLine
 10
5.639870671600379
 20
8.789785986990672
 30
0.0
 11
5.639870671600379
 21
9.409785986990673
 31
0.0
  0
LINE
  5
6634
330
18
100
AcDbEntity
  8
0
100
AcDbLine
 10
5.639870671600379
 20
8.839785986990673
 30
0.0
 11
5.579870671600378
 21
8.839785986990673
 31
0.0
  0
LINE
  5
6635
330
18
100
AcDbEntity
  8
0
100
AcDbLine
 10
5.639870671600379
 20
8.839785986990673
 30
0.0
 11
5.579870671600378
 21
8.839785986990673
 31
0.0
  0
LINE
  5
6636
330
18
100
AcDbEntity
  8
0
100
AcDbLine
 10
5.579870671600378
 20
8.869785986990672
 30
0.0
 11
5.519870671600378
 21
8.869785986990672
 31
0.0
  0
LINE
  5
6637
330
18
100
AcDbEntity
  8
0
100
AcDbLine
 10
5.579870671600378
 20
8.869785986990672
 30
0.0
 11
5.519870671600378
 21
8.869785986990672
 31
0.0
  0
LINE
  5
6638
330
18
100
AcDbEntity
  8
0
100
AcDbLine
 10
5.459870671600377
 20
8.919785986990673
 30
0.0
 11
4.659870671600376
 21
8.919785986990673
 31
0.0
  0
LINE
  5
6639
330
18
100
AcDbEntity
  8
0
100
AcDbLine
 10
5.459870671600377
 20
9.279785986990672
 30
0.0
 11
4.659870671600376
 21
9.279785986990672
 31
0.0
  0
LINE
  5
663A
330
18
100
AcDbEntity
  8
0
100
AcDbLine
 10
4.659870671600376
 20
9.279785986990672
 30
0.0
 11
4.659870671600376
 21
8.919785986990671
 31
0.0
  0
LINE
  5
663B
330
18
100
AcDbEntity
  8
0
100
AcDbLine
 10
4.639870671600382
 20
9.259785986990673
 30
0.0
 11
4.639870671600375
 21
8.939785986990672
 31
0.0
  0
LINE
  5
663C
330
18
100
AcDbEntity
  8
0
100
AcDbLine
 10
4.659870671600375
 20
8.919785986990673
 30
0.0
 11
4.639870671600375
 21
8.939785986990672
 31
0.0
  0
LINE
  5
663D
330
18
100
AcDbEntity
  8
0
100
AcDbLine
 10
4.659870671600376
 20
9.279785986990672
 30
0.0
 11
4.639870671600382
 21
9.259785986990673
 31
0.0
  0
LINE
  5
663E
330
18
100
AcDbEntity
  8
0
100
AcDbLine
 10
5.459870671600377
 20
9.099785986990672
 30
0.0
 11
5.459870671600377
 21
9.279785986990672
 31
0.0
  0
LINE
  5
663F
330
18
100
AcDbEntity
  8
0
100
AcDbLine
 10
5.459870671600377
 20
9.299785986990672
 30
0.0
 11
5.459870671600377
 21
8.899785986990673
 31
0.0
  0
LINE
  5
6640
330
18
100
AcDbEntity
  8
0
100
AcDbLine
 10
5.459870671600377
 20
9.099785986990672
 30
0.0
 11
5.459870671600377
 21
8.919785986990673
 31
0.0
  0
LINE
  5
6641
330
18
100
AcDbEntity
  8
0
100
AcDbLine
 10
5.519870671600378
 20
8.899785986990673
 30
0.0
 11
5.459870671600377
 21
8.899785986990673
 31
0.0
  0
LINE
  5
6642
330
18
100
AcDbEntity
  8
0
100
AcDbLine
 10
5.519870671600378
 20
9.099785986990672
 30
0.0
 11
5.519870671600378
 21
8.899785986990673
 31
0.0
  0
LINE
  5
6643
330
18
100
AcDbEntity
  8
0
100
AcDbLine
 10
5.639870671600379
 20
9.359785986990672
 30
0.0
 11
5.579870671600378
 21
9.35978598699067
 31
0.0
  0
LINE
  5
6644
330
18
100
AcDbEntity
  8
0
100
AcDbLine
 10
5.519870671600378
 20
9.299785986990672
 30
0.0
 11
5.459870671600377
 21
9.299785986990672
 31
0.0
  0
LINE
  5
6645
330
18
100
AcDbEntity
  8
0
100
AcDbLine
 10
5.579870671600378
 20
9.329785986990673
 30
0.0
 11
5.519870671600378
 21
9.329785986990673
 31
0.0
  0
LINE
  5
6646
330
18
100
AcDbEntity
  8
0
100
AcDbLine
 10
6.099870671600379
 20
9.409785986990673
 30
0.0
 11
6.099870671600379
 21
8.789785986990672
 31
0.0
  0
LINE
  5
6647
330
18
100
AcDbEntity
  8
0
100
AcDbLine
 10
6.099870671600379
 20
9.399785986990671
 30
0.0
 11
6.099870671600379
 21
8.799785986990672
 31
0.0
  0
LINE
  5
6648
330
18
100
AcDbEntity
  8
0
100
AcDbLine
 10
6.299870671600379
 20
8.799785986990672
 30
0.0
 11
6.299870671600379
 21
9.399785986990671
 31
0.0
  0
LINE
  5
6649
330
18
100
AcDbEntity
  8
0
100
AcDbLine
 10
6.299870671600379
 20
8.799785986990672
 30
0.0
 11
6.099870671600379
 21
8.799785986990672
 31
0.0
  0
LINE
  5
664A
330
18
100
AcDbEntity
  8
0
100
AcDbLine
 10
6.299870671600379
 20
9.399785986990671
 30
0.0
 11
6.099870671600379
 21
9.399785986990671
 31
0.0
  0
LEADER
  5
6671
330
18
100
AcDbEntity
  8
0
100
AcDbLeader
  3
STANDARD
 76
     3
 10
3.465036505745869
 20
8.973524278855609
 30
0.0
 10
2.757929724559323
 20
8.266417497669063
 30
0.0
 10
2.257929724559323
 20
8.266417497669063
 30
0.0
1001
ACAD
1000
DSTYLE
1002
{
1070
   147
1040
0.09
1070
    77
1070
     0
1070
   289
1070
     0
1002
}
  0
MTEXT
  5
6673
330
18
100
AcDbEntity
  8
0
100
AcDbMText
 10
2.007929724559323
 20
8.266417497669063
 30
0.0
 40
0.1
 41
0.0
 71
     6
 72
     1
  1
COAX CABLE
 73
     1
 44
1.0
  0
LINE
  5
67E7
330
18
100
AcDbEntity
  8
0
100
AcDbLine
 10
4.246484436544657
 20
4.493623744474097
 30
0.0
 11
4.370484436544655
 21
4.493623744474097
 31
0.0
  0
LINE
  5
67E8
330
18
100
AcDbEntity
  8
0
100
AcDbLine
 10
4.370484436544657
 20
4.673623744474099
 30
0.0
 11
4.246484436544657
 21
4.673623744474099
 31
0.0
  0
LINE
  5
67E9
330
18
100
AcDbEntity
  8
0
100
AcDbLine
 10
4.370484436544655
 20
5.193623744474097
 30
0.0
 11
4.246484436544657
 21
5.193623744474097
 31
0.0
  0
LINE
  5
67EA
330
18
100
AcDbEntity
  8
0
100
AcDbLine
 10
4.246484436544657
 20
5.013623744474099
 30
0.0
 11
4.370484436544657
 21
5.013623744474099
 31
0.0
  0
LINE
  5
67EB
330
18
100
AcDbEntity
  8
0
100
AcDbLine
 10
4.246484436544657
 20
5.193623744474097
 30
0.0
 11
4.246484436544657
 21
4.493623744474097
 31
0.0
  0
LINE
  5
67EC
330
18
100
AcDbEntity
  8
0
100
AcDbLine
 10
3.746484436544657
 20
5.089623744474097
 30
0.0
 11
3.746484436544657
 21
4.597623744474097
 31
0.0
  0
LINE
  5
67ED
330
18
100
AcDbEntity
  8
0
100
AcDbLine
 10
4.196484436544656
 20
4.633623744474096
 30
0.0
 11
4.196484436544656
 21
5.053623744474098
 31
0.0
  0
LINE
  5
67EE
330
18
100
AcDbEntity
  8
0
100
AcDbLine
 10
4.096484436544656
 20
4.633623744474096
 30
0.0
 11
4.096484436544656
 21
5.053623744474098
 31
0.0
  0
LINE
  5
67EF
330
18
100
AcDbEntity
  8
0
100
AcDbLine
 10
3.996484436544657
 20
5.053623744474098
 30
0.0
 11
3.996484436544657
 21
4.633623744474096
 31
0.0
  0
LINE
  5
67F0
330
18
100
AcDbEntity
  8
0
100
AcDbLine
 10
3.896484436544657
 20
4.633623744474096
 30
0.0
 11
3.896484436544657
 21
5.053623744474098
 31
0.0
  0
LINE
  5
67F1
330
18
100
AcDbEntity
  8
0
100
AcDbLine
 10
3.796484436544657
 20
5.053623744474098
 30
0.0
 11
3.796484436544657
 21
4.633623744474096
 31
0.0
  0
LINE
  5
67F2
330
18
100
AcDbEntity
  8
0
100
AcDbLine
 10
4.246484436544657
 20
4.673623744474099
 30
0.0
 11
4.246484436544657
 21
5.013623744474099
 31
0.0
  0
LINE
  5
67F3
330
18
100
AcDbEntity
  8
0
100
AcDbLine
 10
3.746484436544657
 20
4.597623744474097
 30
0.0
 11
4.246484436544657
 21
4.597623744474097
 31
0.0
  0
LINE
  5
67F4
330
18
100
AcDbEntity
  8
0
100
AcDbLine
 10
4.146484436544655
 20
4.733623744474098
 30
0.0
 11
4.146484436544655
 21
4.953623744474096
 31
0.0
  0
LINE
  5
67F5
330
18
100
AcDbEntity
  8
0
100
AcDbLine
 10
4.046484436544655
 20
4.733623744474098
 30
0.0
 11
4.046484436544655
 21
4.953623744474096
 31
0.0
  0
LINE
  5
67F6
330
18
100
AcDbEntity
  8
0
100
AcDbLine
 10
3.946484436544656
 20
4.953623744474096
 30
0.0
 11
3.946484436544656
 21
4.733623744474098
 31
0.0
  0
LINE
  5
67F7
330
18
100
AcDbEntity
  8
0
100
AcDbLine
 10
3.846484436544656
 20
4.733623744474098
 30
0.0
 11
3.846484436544656
 21
4.953623744474096
 31
0.0
  0
LINE
  5
67F8
330
18
100
AcDbEntity
  8
0
100
AcDbLine
 10
4.246484436544657
 20
4.633623744474096
 30
0.0
 11
4.246484436544657
 21
4.633623744474096
 31
0.0
  0
LINE
  5
67F9
330
18
100
AcDbEntity
  8
0
100
AcDbLine
 10
4.246484436544657
 20
4.843623744474097
 30
0.0
 11
4.246484436544657
 21
4.843623744474097
 31
0.0
  0
LINE
  5
67FA
330
18
100
AcDbEntity
  8
0
100
AcDbLine
 10
3.746484436544657
 20
5.089623744474097
 30
0.0
 11
4.246484436544657
 21
5.089623744474097
 31
0.0
  0
LINE
  5
67FB
330
18
100
AcDbEntity
  8
0
100
AcDbLine
 10
4.370484436544659
 20
4.403623744474101
 30
0.0
 11
4.370484436544655
 21
5.283623744474098
 31
0.0
  0
LINE
  5
67FC
330
18
100
AcDbEntity
  8
0
100
AcDbLine
 10
4.440484436544656
 20
4.403623744474099
 30
0.0
 11
4.440484436544656
 21
5.283623744474096
 31
0.0
  0
LINE
  5
67FE
330
18
100
AcDbEntity
  8
0
100
AcDbLine
 10
4.370484436544659
 20
4.403623744474101
 30
0.0
 11
4.440484436544656
 21
4.403623744474099
 31
0.0
  0
LINE
  5
67FF
330
18
100
AcDbEntity
  8
0
100
AcDbLine
 10
4.370484436544657
 20
4.843623744474099
 30
0.0
 11
4.370484436544657
 21
4.673623744474099
 31
0.0
  0
LINE
  5
6800
330
18
100
AcDbEntity
  8
0
100
AcDbLine
 10
4.370484436544655
 20
5.283623744474098
 30
0.0
 11
4.440484436544656
 21
5.283623744474096
 31
0.0
  0
LINE
  5
6807
102
{ACAD_REACTORS
330
6875
330
687C
102
}
330
18
100
AcDbEntity
  8
0
100
AcDbLine
 10
4.440484436544656
 20
5.378623744474098
 30
0.0
 11
4.440484436544656
 21
4.308623744474098
 31
0.0
  0
LINE
  5
6808
102
{ACAD_REACTORS
330
6875
330
687C
102
}
330
18
100
AcDbEntity
  8
0
100
AcDbLine
 10
5.526484436544651
 20
5.378623744474098
 30
0.0
 11
5.526484436544651
 21
4.308623744474098
 31
0.0
  0
LINE
  5
680C
102
{ACAD_REACTORS
330
6875
102
}
330
18
100
AcDbEntity
  8
0
100
AcDbLine
 10
5.526484436544651
 20
5.378623744474098
 30
0.0
 11
4.440484436544656
 21
5.378623744474098
 31
0.0
  0
LINE
  5
6812
102
{ACAD_REACTORS
330
6875
102
}
330
18
100
AcDbEntity
  8
0
100
AcDbLine
 10
5.526484436544651
 20
5.183623744474098
 30
0.0
 11
5.207610557160825
 21
5.183623744474098
 31
0.0
  0
LINE
  5
6814
102
{ACAD_REACTORS
330
687C
102
}
330
18
100
AcDbEntity
  8
0
100
AcDbLine
 10
5.207610557160825
 20
4.503623744474098
 30
0.0
 11
5.526484436544651
 21
4.503623744474098
 31
0.0
  0
LINE
  5
6819
102
{ACAD_REACTORS
330
687C
102
}
330
18
100
AcDbEntity
  8
0
100
AcDbLine
 10
4.440484436544656
 20
4.308623744474098
 30
0.0
 11
5.526484436544651
 21
4.308623744474098
 31
0.0
  0
LINE
  5
681B
330
18
100
AcDbEntity
  8
0
100
AcDbLine
 10
5.397610557160824
 20
4.518623744474099
 30
0.0
 11
5.397610557160824
 21
5.168623744474097
 31
0.0
  0
LINE
  5
681C
330
18
100
AcDbEntity
  8
0
100
AcDbLine
 10
5.197610557160825
 20
4.478623744474099
 30
0.0
 11
5.197610557160825
 21
5.208623744474096
 31
0.0
  0
LINE
  5
681D
330
18
100
AcDbEntity
  8
0
100
AcDbLine
 10
5.117610557160825
 20
4.478623744474099
 30
0.0
 11
5.117610557160825
 21
5.208623744474096
 31
0.0
  0
LINE
  5
681E
330
18
100
AcDbEntity
  8
0
100
AcDbLine
 10
5.117610557160825
 20
5.208623744474096
 30
0.0
 11
5.197610557160825
 21
5.208623744474096
 31
0.0
  0
LINE
  5
681F
330
18
100
AcDbEntity
  8
0
100
AcDbLine
 10
5.397610557160824
 20
5.168623744474097
 30
0.0
 11
5.197610557160825
 21
5.168623744474097
 31
0.0
  0
LINE
  5
6820
330
18
100
AcDbEntity
  8
0
100
AcDbLine
 10
5.117610557160825
 20
4.478623744474099
 30
0.0
 11
5.197610557160825
 21
4.478623744474099
 31
0.0
  0
LINE
  5
6821
330
18
100
AcDbEntity
  8
0
100
AcDbLine
 10
5.197610557160825
 20
4.518623744474099
 30
0.0
 11
5.397610557160824
 21
4.518623744474099
 31
0.0
  0
LINE
  5
6822
330
18
100
AcDbEntity
  8
0
100
AcDbLine
 10
4.917610557160825
 20
4.861623744474099
 30
0.0
 11
5.117610557160825
 21
4.861623744474099
 31
0.0
  0
LINE
  5
6823
330
18
100
AcDbEntity
  8
0
100
AcDbLine
 10
4.917610557160825
 20
4.825623744474097
 30
0.0
 11
5.117610557160825
 21
4.825623744474097
 31
0.0
  0
LINE
  5
6824
330
18
100
AcDbEntity
  8
0
100
AcDbLine
 10
4.917610557160825
 20
5.061623744474098
 30
0.0
 11
5.117610557160825
 21
5.061623744474098
 31
0.0
  0
LINE
  5
6825
330
18
100
AcDbEntity
  8
0
100
AcDbLine
 10
4.917610557160825
 20
5.025623744474096
 30
0.0
 11
5.117610557160825
 21
5.025623744474096
 31
0.0
  0
LINE
  5
6826
330
18
100
AcDbEntity
  8
0
100
AcDbLine
 10
4.917610557160825
 20
5.025623744474096
 30
0.0
 11
4.917610557160825
 21
5.061623744474098
 31
0.0
  0
LINE
  5
6827
330
18
100
AcDbEntity
  8
0
100
AcDbLine
 10
4.917610557160825
 20
4.861623744474099
 30
0.0
 11
4.917610557160825
 21
4.825623744474097
 31
0.0
  0
LINE
  5
6828
330
18
100
AcDbEntity
  8
0
100
AcDbLine
 10
4.917610557160825
 20
4.661623744474099
 30
0.0
 11
5.117610557160825
 21
4.661623744474099
 31
0.0
  0
LINE
  5
6829
330
18
100
AcDbEntity
  8
0
100
AcDbLine
 10
4.917610557160825
 20
4.625623744474098
 30
0.0
 11
5.117610557160825
 21
4.625623744474098
 31
0.0
  0
LINE
  5
682A
330
18
100
AcDbEntity
  8
0
100
AcDbLine
 10
4.917610557160825
 20
4.625623744474098
 30
0.0
 11
4.917610557160825
 21
4.661623744474099
 31
0.0
  0
TEXT
  5
6836
330
18
100
AcDbEntity
  8
0
100
AcDbText
 10
1.449487683988079
 20
5.569953830364009
 30
0.0
 40
0.1
  1
SMA CONNECTOR
 72
     2
 11
2.716154350654745
 21
5.619953830364009
 31
0.0
100
AcDbText
 73
     2
  0
LINE
  5
6865
102
{ACAD_REACTORS
330
6875
102
}
330
18
100
AcDbEntity
  8
0
100
AcDbLine
 10
5.207610557160824
 20
5.218623744474096
 30
0.0
 11
5.207610557160825
 21
5.183623744474098
 31
0.0
  0
LINE
  5
6868
102
{ACAD_REACTORS
330
6875
102
}
330
18
100
AcDbEntity
  8
0
100
AcDbLine
 10
5.207610557160824
 20
5.218623744474096
 30
0.0
 11
4.440484436544656
 21
5.218623744474096
 31
0.0
  0
LINE
  5
686A
102
{ACAD_REACTORS
330
687C
102
}
330
18
100
AcDbEntity
  8
0
100
AcDbLine
 10
5.207610557160824
 20
4.4686237444741
 30
0.0
 11
5.207610557160825
 21
4.503623744474098
 31
0.0
  0
LINE
  5
686C
102
{ACAD_REACTORS
330
687C
102
}
330
18
100
AcDbEntity
  8
0
100
AcDbLine
 10
5.207610557160824
 20
4.4686237444741
 30
0.0
 11
4.440484436544656
 21
4.4686237444741
 31
0.0
  0
HATCH
  5
6875
330
18
100
AcDbEntity
  8
0
100
AcDbHatch
 10
0.0
 20
0.0
 30
0.0
210
0.0
220
0.0
230
1.0
  2
ANSI31
 70
     0
 71
     1
 91
        1
 92
        7
 72
     0
 73
     1
 93
        6
 10
4.440484436544656
 20
5.378623744474099
 10
4.440484436544656
 20
5.218623744474096
 10
5.207610557160824
 20
5.218623744474096
 10
5.207610557160825
 20
5.183623744474098
 10
5.526484436544651
 20
5.183623744474098
 10
5.526484436544651
 20
5.378623744474099
 97
        6
330
680C
330
6807
330
6868
330
6865
330
6812
330
6808
 75
     0
 76
     1
 52
0.0
 41
0.5
 77
     0
 78
     1
 53
45.0
 43
-0.3841575464713127
 44
-0.3569999999999975
 45
-0.0441941738241592
 46
0.0441941738241592
 79
     0
 47
0.0066091186091355
 98
        1
 10
4.959434848924347
 20
5.321473325650979
  0
HATCH
  5
687C
330
18
100
AcDbEntity
  8
0
100
AcDbHatch
 10
0.0
 20
0.0
 30
0.0
210
0.0
220
0.0
230
1.0
  2
ANSI31
 70
     0
 71
     1
 91
        1
 92
        7
 72
     0
 73
     1
 93
        6
 10
5.526484436544651
 20
4.308623744474099
 10
5.526484436544651
 20
4.503623744474098
 10
5.207610557160825
 20
4.503623744474098
 10
5.207610557160825
 20
4.4686237444741
 10
4.440484436544656
 20
4.4686237444741
 10
4.440484436544656
 20
4.308623744474099
 97
        6
330
6814
330
686A
330
686C
330
6807
330
6819
330
6808
 75
     0
 76
     1
 52
0.0
 41
0.5
 77
     0
 78
     1
 53
45.0
 43
-0.3841575464713127
 44
-0.3569999999999975
 45
-0.0441941738241592
 46
0.0441941738241592
 79
     0
 47
0.0066091186091355
 98
        1
 10
5.045419192551152
 20
4.382978478787594
  0
TEXT
  5
689E
330
18
100
AcDbEntity
  8
0
100
AcDbText
 10
6.677940643050733
 20
5.323953830364009
 30
0.0
 40
0.1
  1
PHOTODIODE
 11
6.677940643050733
 21
5.373953830364008
 31
0.0
100
AcDbText
 73
     2
  0
TEXT
  5
68AB
330
18
100
AcDbEntity
  8
0
100
AcDbText
 10
1.705725306624005
 20
3.72786461455345
 30
0.0
 40
0.1
  1
SM05PD5B ASSEMBLY
 72
     2
 11
3.355725306624006
 21
3.77786461455345
 31
0.0
100
AcDbText
 73
     2
  0
CIRCLE
  5
68DE
330
18
100
AcDbEntity
  8
0
100
AcDbCircle
 10
12.17677456152586
 20
9.099785986990672
 30
0.0
 40
0.5350000000000001
  0
CIRCLE
  5
68E6
330
18
100
AcDbEntity
  8
0
  6
HIDDEN
100
AcDbCircle
 10
12.17677456152586
 20
9.099785986990672
 30
0.0
 40
0.505
  0
CIRCLE
  5
68F0
330
18
100
AcDbEntity
  8
0
100
AcDbCircle
 10
12.17677456152586
 20
9.099785986990672
 30
0.0
 40
0.34
  0
LINE
  5
6906
330
18
100
AcDbEntity
  8
0
100
AcDbLine
 10
12.13677456152586
 20
9.439785986990672
 30
0.0
 11
11.10177456152586
 21
9.439785986990672
 31
0.0
  0
LINE
  5
6907
330
18
100
AcDbEntity
  8
0
100
AcDbLine
 10
12.13677456152586
 20
8.759785986990673
 30
0.0
 11
11.10177456152586
 21
8.759785986990673
 31
0.0
  0
LINE
  5
6908
330
18
100
AcDbEntity
  8
0
100
AcDbLine
 10
11.14177456152586
 20
9.619785986990672
 30
0.0
 11
11.14177456152586
 21
9.799785986990672
 31
0.0
  0
LINE
  5
6909
330
18
100
AcDbEntity
  8
0
100
AcDbLine
 10
11.14177456152586
 20
8.579785986990673
 30
0.0
 11
11.14177456152586
 21
8.399785986990673
 31
0.0
  0
SOLID
  5
690A
330
18
100
AcDbEntity
  8
0
100
AcDbTrace
 10
11.11177456152586
 20
9.619785986990672
 30
0.0
 11
11.17177456152586
 21
9.619785986990672
 31
0.0
 12
11.14177456152586
 22
9.439785986990672
 32
0.0
 13
11.14177456152586
 23
9.439785986990672
 33
0.0
  0
SOLID
  5
690B
330
18
100
AcDbEntity
  8
0
100
AcDbTrace
 10
11.11177456152586
 20
8.579785986990673
 30
0.0
 11
11.17177456152586
 21
8.579785986990673
 31
0.0
 12
11.14177456152586
 22
8.759785986990673
 32
0.0
 13
11.14177456152586
 23
8.759785986990673
 33
0.0
  0
MTEXT
  5
690C
330
18
100
AcDbEntity
  8
0
100
AcDbMText
 10
11.14177456152586
 20
9.099785986990672
 30
0.0
 40
0.1
 41
0.0
 71
     5
 72
     1
  1
%%C0.34"\P(%%C8.6mm)
 73
     1
 44
1.0
  0
MTEXT
  5
693A
330
18
100
AcDbEntity
  8
0
100
AcDbMText
 10
13.90089462842791
 20
9.928906053892729
 30
0.0
 40
0.1
 41
2.474207859999999
 71
     4
 72
     5
  1
InGaAs PHOTODIODE\P(%%C2mm ACTIVE AREA)
 73
     1
 44
1.0
  0
LEADER
  5
693F
330
18
100
AcDbEntity
  8
0
100
AcDbLeader
  3
STANDARD
 76
     3
 10
12.32177456152586
 20
9.099785986990672
 30
0.0
 10
13.15089462842791
 20
9.928906053892729
 30
0.0
 10
13.65089462842791
 20
9.928906053892729
 30
0.0
1001
ACAD
1000
DSTYLE
1002
{
1070
   147
1040
0.09
1070
    77
1070
     0
1070
   289
1070
     0
1002
}
  0
CIRCLE
  5
6946
330
18
100
AcDbEntity
  8
0
100
AcDbCircle
 10
12.17677456152586
 20
4.693623744474098
 30
0.0
 40
0.5350000000000001
  0
CIRCLE
  5
6964
102
{ACAD_REACTORS
330
6967
102
}
330
18
100
AcDbEntity
  8
0
100
AcDbCircle
 10
14.71177456152586
 20
4.693623744474097
 30
0.0
 40
0.0425327573730543
  0
HATCH
  5
6967
330
18
100
AcDbEntity
  8
0
100
AcDbHatch
 10
0.0
 20
0.0
 30
0.0
210
0.0
220
0.0
230
1.0
  2
SOLID
 70
     1
 71
     1
 91
        1
 92
        7
 72
     1
 73
     1
 93
        2
 10
14.6692418041528
 20
4.693623744474097
 42
1.0
 10
14.75430731889891
 20
4.693623744474097
 42
1.0
 97
        1
330
6964
 75
     0
 76
     1
 47
0.001927231907853
 98
        1
 10
14.73805632049273
 20
4.710318642266697
  0
CIRCLE
  5
696A
330
18
100
AcDbEntity
  8
0
100
AcDbCircle
 10
14.71177456152586
 20
4.693623744474097
 30
0.0
 40
0.0747525953920659
  0
ARC
  5
696E
330
18
100
AcDbEntity
  8
0
100
AcDbCircle
 10
14.71177456152586
 20
4.693623744474098
 30
0.0
 40
0.2499999999999994
100
AcDbArc
 50
197.398174049753
 51
162.6018259502477
  0
ARC
  5
696F
330
18
100
AcDbEntity
  8
0
100
AcDbCircle
 10
14.71177456152586
 20
4.693623744474097
 30
0.0
 40
0.25
100
AcDbArc
 50
163.0397726379452
 51
163.0397726379454
  0
LINE
  5
6975
330
18
100
AcDbEntity
  8
0
100
AcDbLine
 10
12.17677456152586
 20
5.228623744474099
 30
0.0
 11
12.17677456152586
 21
6.046568724576087
 31
0.0
  0
LINE
  5
6977
330
18
100
AcDbEntity
  8
0
100
AcDbLine
 10
10.14177456152586
 20
6.071568724576088
 30
0.0
 11
14.71177456152586
 21
6.071568724576086
 31
0.0
  0
CIRCLE
  5
6978
330
18
100
AcDbEntity
  8
0
100
AcDbCircle
 10
12.17677456152586
 20
6.071568724576088
 30
0.0
 40
0.025
  0
LINE
  5
6983
330
18
100
AcDbEntity
  8
0
100
AcDbLine
 10
14.71177456152586
 20
4.943623744474098
 30
0.0
 11
14.71177456152586
 21
6.071568724576085
 31
0.0
  0
HATCH
  5
699A
330
18
100
AcDbEntity
  8
0
100
AcDbHatch
 10
0.0
 20
0.0
 30
0.0
210
0.0
220
0.0
230
1.0
  2
SOLID
 70
     1
 71
     0
 91
        3
 92
        7
 72
     1
 73
     1
 93
        2
 10
12.15177456152586
 20
6.071568724576088
 42
0.0
 10
12.20177456152586
 20
6.071568724576088
 42
1.0
 97
        0
 92
        7
 72
     1
 73
     1
 93
        3
 10
12.17677456152586
 20
6.071568724576088
 42
0.0
 10
12.15177456152586
 20
6.071568724576088
 42
0.4142135623731034
 10
12.17677456152586
 20
6.046568724576087
 42
0.0
 97
        0
 92
        7
 72
     1
 73
     1
 93
        3
 10
12.20177456152586
 20
6.071568724576088
 42
0.0
 10
12.17677456152586
 20
6.071568724576088
 42
0.0
 10
12.17677456152586
 20
6.046568724576087
 42
0.4142135623731347
 97
        0
 75
     0
 76
     1
 47
0.0008180778417942
 98
        3
 10
12.19000549747322
 20
6.087087293599262
 10
12.1711825586663
 20
6.060908815870812
 10
12.18673193035701
 20
6.060090736722218
  0
CIRCLE
  5
699C
330
18
100
AcDbEntity
  8
0
100
AcDbCircle
 10
14.71177456152586
 20
4.943623744474098
 30
0.0
 40
0.025
  0
HATCH
  5
69A7
330
18
100
AcDbEntity
  8
0
100
AcDbHatch
 10
0.0
 20
0.0
 30
0.0
210
0.0
220
0.0
230
1.0
  2
SOLID
 70
     1
 71
     0
 91
        3
 92
        7
 72
     1
 73
     1
 93
        4
 10
14.71177456152586
 20
4.968623744474098
 42
0.0
 10
14.71177456152586
 20
4.943623744474098
 42
-0.0250156445618217
 10
14.73674329197016
 20
4.942373744474099
 42
0.0125058660989343
 10
14.73677456152586
 20
4.943623744474098
 42
0.4142135623731034
 97
        0
 92
        7
 72
     1
 73
     1
 93
        4
 10
14.71177456152586
 20
4.968623744474098
 42
0.4142135623731034
 10
14.68677456152586
 20
4.943623744474098
 42
0.0125058660989343
 10
14.68680583108156
 20
4.942373744474099
 42
-0.0250156445618218
 10
14.71177456152586
 20
4.943623744474099
 42
0.0
 97
        0
 92
        7
 72
     1
 73
     1
 93
        2
 10
14.73674329197016
 20
4.942373744474098
 42
0.0500626174321772
 10
14.68680583108156
 20
4.942373744474099
 42
0.9511897312117481
 97
        0
 75
     0
 76
     1
 47
0.0006330533653554
 98
        3
 10
14.72377346458429
 20
4.953339446969671
 10
14.69654186092732
 20
4.950174184453704
 10
14.7079411279327
 20
4.930549529341437
  0
MTEXT
  5
69AF
330
18
100
AcDbEntity
  8
0
100
AcDbMText
 10
12.85638303299234
 20
4.832620723009777
 30
0.0
 40
0.1
 41
0.0
 71
     4
 72
     1
  1
CATHODE
 73
     1
 44
1.0
  0
TEXT
  5
69B6
330
18
100
AcDbEntity
  8
0
100
AcDbText
 10
11.72352794859905
 20
3.816594211642985
 30
0.0
 40
0.1
  1
PHOTODIODE
 72
     2
 11
12.65686128193239
 21
3.866594211642985
 31
0.0
100
AcDbText
 73
     2
  0
LINE
  5
69C5
330
18
100
AcDbEntity
  8
0
100
AcDbLine
 39
0.27
 10
10.65720380884233
 20
2.767250067525797
 30
0.0
 11
13.69634531420939
 21
2.767250067525797
 31
0.0
  0
LINE
  5
69C6
330
18
100
AcDbEntity
  8
0
100
AcDbLine
 39
0.27
 10
13.4813816467566
 20
2.811725309067754
 30
0.0
 11
10.87216747629512
 21
2.811725309067754
 31
0.0
  0
TEXT
  5
69C7
330
18
100
AcDbEntity
  8
0
100
AcDbText
 10
10.97677456152585
 20
2.859749262967265
 30
0.0
 40
0.12
  1
ELECTRICAL CONNECTION
 72
     1
 11
12.17677456152586
 21
2.919749262967265
 31
0.0
100
AcDbText
 73
     2
  0
LINE
  5
69CF
330
18
100
AcDbEntity
  8
0
100
AcDbLine
 39
0.27
 10
10.65720380884233
 20
7.070254654303912
 30
0.0
 11
13.69634531420939
 21
7.070254654303912
 31
0.0
  0
LINE
  5
69D0
330
18
100
AcDbEntity
  8
0
100
AcDbLine
 39
0.27
 10
13.4813816467566
 20
7.11472989584587
 30
0.0
 11
10.87216747629512
 21
7.11472989584587
 31
0.0
  0
TEXT
  5
69D1
330
18
100
AcDbEntity
  8
0
100
AcDbText
 10
11.57677456152586
 20
7.172056224728481
 30
0.0
 40
0.12
  1
FRONT VIEW
 72
     1
 11
12.17677456152586
 21
7.232056224728481
 31
0.0
100
AcDbText
 73
     2
  0
MTEXT
  5
69E0
330
18
100
AcDbEntity
  8
0
100
AcDbMText
 10
12.25209262347667
 20
5.438761227181191
 30
0.0
 40
0.1
 41
0.0
 71
     4
 72
     1
  1
CASE
 73
     1
 44
1.0
  0
TEXT
  5
69E1
330
18
100
AcDbEntity
  8
0
100
AcDbText
 10
15.21177456152586
 20
4.643623744474099
 30
0.0
 40
0.1
  1
SMA CONNECTOR
 11
15.21177456152586
 21
4.693623744474098
 31
0.0
100
AcDbText
 73
     2
  0
MTEXT
  5
69FD
330
18
100
AcDbEntity
  8
0
100
AcDbMText
 10
11.02266346345849
 20
4.821872851098425
 30
0.0
 40
0.1
 41
0.0
 71
     4
 72
     1
  1
ANODE
 73
     1
 44
1.0
  0
LINE
  5
69FE
330
18
100
AcDbEntity
  8
0
  6
Continuous
100
AcDbLine
 10
12.71177456152586
 20
4.693623744474098
 30
0.0
 11
14.71177456152586
 21
4.693623744474098
 31
0.0
  0
LINE
  5
69FF
330
18
100
AcDbEntity
  8
0
  6
Continuous
100
AcDbLine
 10
11.64177456152586
 20
4.693623744474098
 30
0.0
 11
10.14177456152586
 21
4.693623744474098
 31
0.0
  0
LINE
  5
6A00
330
18
100
AcDbEntity
  8
0
  6
Continuous
100
AcDbLine
 10
10.14177456152586
 20
4.693623744474098
 30
0.0
 11
10.14177456152586
 21
6.071568724576088
 31
0.0
  0
LEADER
  5
6A0F
330
18
100
AcDbEntity
  8
0
100
AcDbLeader
  3
STANDARD
 76
     3
 10
5.869870671600379
 20
9.409785986990673
 30
0.0
 10
5.339540585710468
 20
9.940116072880584
 30
0.0
 10
4.839540585710468
 20
9.940116072880584
 30
0.0
1001
ACAD
1000
DSTYLE
1002
{
1070
   147
1040
0.09
1070
    77
1070
     0
1070
   289
1070
     0
1002
}
  0
LEADER
  5
6A16
330
18
100
AcDbEntity
  8
0
100
AcDbLeader
  3
STANDARD
 76
     3
 10
7.084250324507424
 20
8.564785986990672
 30
0.0
 10
6.553920238617514
 20
8.034455901100763
 30
0.0
 10
6.053920238617514
 20
8.034455901100763
 30
0.0
1001
ACAD
1000
DSTYLE
1002
{
1070
   147
1040
0.09
1070
    77
1070
     0
1070
   289
1070
     0
1002
}
  0
LEADER
  5
6A1E
330
18
100
AcDbEntity
  8
0
  6
Continuous
100
AcDbLeader
  3
STANDARD
 76
     3
 10
3.996484436544657
 20
5.089623744474097
 30
0.0
 10
3.466154350654745
 20
5.619953830364009
 30
0.0
 10
2.966154350654745
 20
5.619953830364009
 30
0.0
1001
ACAD
1000
DSTYLE
1002
{
1070
   147
1040
0.09
1070
    77
1070
     0
1070
   289
1070
     0
1002
}
  0
LEADER
  5
6A24
330
18
100
AcDbEntity
  8
0
  6
Continuous
100
AcDbLeader
  3
STANDARD
 76
     3
 10
5.397610557160824
 20
4.843623744474098
 30
0.0
 10
5.927940643050733
 20
5.373953830364008
 30
0.0
 10
6.427940643050733
 20
5.373953830364008
 30
0.0
1001
ACAD
1000
DSTYLE
1002
{
1070
   147
1040
0.09
1070
    77
1070
     0
1070
   289
1070
     0
1002
}
  0
LEADER
  5
6A29
330
18
100
AcDbEntity
  8
0
  6
Continuous
100
AcDbLeader
  3
STANDARD
 76
     3
 10
4.636055392513918
 20
4.30819470044336
 30
0.0
 10
4.105725306624006
 20
3.77786461455345
 30
0.0
 10
3.605725306624006
 20
3.77786461455345
 30
0.0
1001
ACAD
1000
DSTYLE
1002
{
1070
   147
1040
0.09
1070
    77
1070
     0
1070
   289
1070
     0
1002
}
  0
LINE
  5
6A4E
330
18
100
AcDbEntity
  8
0
  6
HIDDEN
100
AcDbLine
 10
12.17677456152586
 20
9.634785986990673
 30
0.0
 11
12.17677456152586
 21
8.564785986990672
 31
0.0
  0
LINE
  5
6A51
330
18
100
AcDbEntity
  8
0
  6
Continuous
100
AcDbLine
 10
12.17677456152586
 20
9.934785986990673
 30
0.0
 11
12.42677456152586
 21
9.934785986990673
 31
0.0
  0
LINE
  5
6A53
330
18
100
AcDbEntity
  8
0
  6
Continuous
100
AcDbLine
 10
12.17677456152586
 20
8.264785986990672
 30
0.0
 11
12.42677456152586
 21
8.264785986990672
 31
0.0
  0
TEXT
  5
6A5D
330
18
100
AcDbEntity
  8
0
100
AcDbText
 10
12.62847988626472
 20
9.878048924543904
 30
0.0
 40
0.1
  1
X
 11
12.62847988626472
 21
9.928048924543904
 31
0.0
100
AcDbText
 73
     2
  0
TEXT
  5
6A5E
330
18
100
AcDbEntity
  8
0
100
AcDbText
 10
12.62847988626472
 20
8.210609120691078
 30
0.0
 40
0.1
  1
X
 11
12.62847988626472
 21
8.260609120691078
 31
0.0
100
AcDbText
 73
     2
  0
LINE
  5
6A6C
330
18
100
AcDbEntity
  8
0
100
AcDbLine
 10
12.17677456152586
 20
9.634785986990673
 30
0.0
 11
12.17677456152586
 21
9.934785986990673
 31
0.0
  0
LINE
  5
6A6E
330
18
100
AcDbEntity
  8
0
100
AcDbLine
 10
12.17677456152586
 20
8.564785986990672
 30
0.0
 11
12.17677456152586
 21
8.264785986990672
 31
0.0
  0
MTEXT
  5
6A72
330
18
100
AcDbEntity
  8
0
100
AcDbMText
 10
5.803920238617514
 20
8.034455901100763
 30
0.0
 40
0.1
 41
2.931658969999999
 71
     6
 72
     5
  1
%%C0.535-40 (SM05) THREAD\PMATERIAL: DELRIN{\fCourier New|b0|i0|c0|p48;® }PLASTIC
 73
     1
 44
1.0
  0
CIRCLE
  5
6B1C
330
18
100
AcDbEntity
  8
0
370
    13
100
AcDbCircle
 10
12.17677456152586
 20
9.099785986990672
 30
0.0
 40
0.1452675748577619
  0
HATCH
  5
6B28
330
18
100
AcDbEntity
  8
0
100
AcDbHatch
 10
0.0
 20
0.0
 30
0.0
210
0.0
220
0.0
230
1.0
  2
SOLID
 70
     1
 71
     1
 91
        1
 92
        1
 93
        1
 72
     2
 10
12.17677456152586
 20
9.099785986990672
 40
0.04
 50
0.0
 51
360.0
 73
     1
 97
        1
330
6B29
 75
     0
 76
     1
 98
        1
 10
0.0
 20
0.0
  0
CIRCLE
  5
6B29
102
{ACAD_REACTORS
330
6B28
102
}
330
18
100
AcDbEntity
  8
0
100
AcDbCircle
 10
12.17677456152586
 20
9.099785986990672
 30
0.0
 40
0.04
  0
MTEXT
  5
6B8E
330
18
100
AcDbEntity
  8
0
100
AcDbMText
 10
0.4533186418844295
 20
11.24211162728317
 30
0.0
 40
0.2
 41
5.42947217
 71
     1
 72
     5
  1
{\fArial|b0|i0|c0|p34;COPYRIGHT \fSymbol|b0|i0|c2|p18;Ó\fArial|b0|i0|c0|p34; 2005 by THORLABS INC.}
 73
     1
 44
1.0
  0
SOLID
  5
6BAE
330
18
100
AcDbEntity
  8
0
100
AcDbTrace
 10
12.41884830052853
 20
9.902544167001519
 30
0.0
 11
12.41884830052853
 21
9.962544167001517
 31
0.0
 12
12.59884830052853
 22
9.932544167001518
 32
0.0
 13
12.59884830052853
 23
9.932544167001518
 33
0.0
  0
SOLID
  5
6BAF
330
18
100
AcDbEntity
  8
0
100
AcDbTrace
 10
12.41884830052853
 20
8.235237461368617
 30
0.0
 11
12.41884830052853
 21
8.295237461368616
 31
0.0
 12
12.59884830052853
 22
8.265237461368617
 32
0.0
 13
12.59884830052853
 23
8.265237461368617
 33
0.0
  0
LINE
  5
6BB0
330
18
100
AcDbEntity
  8
0
100
AcDbLine
 10
12.44427456152586
 20
4.693623744474098
 30
0.0
 11
12.71177456152586
 21
4.693623744474098
 31
0.0
  0
LINE
  5
6BB1
330
18
100
AcDbEntity
  8
0
100
AcDbLine
 10
11.64177456152586
 20
4.693623744474098
 30
0.0
 11
11.90927456152586
 21
4.693623744474099
 31
0.0
  0
LINE
  5
6BB2
330
18
100
AcDbEntity
  8
0
100
AcDbLine
 10
11.90927456152586
 20
4.393623744474099
 30
0.0
 11
12.44427456152586
 21
4.693623744474098
 31
0.0
  0
LINE
  5
6BB3
330
18
100
AcDbEntity
  8
0
100
AcDbLine
 10
11.90927456152586
 20
4.693623744474098
 30
0.0
 11
11.90927456152586
 21
4.393623744474099
 31
0.0
  0
LINE
  5
6BB4
330
18
100
AcDbEntity
  8
0
100
AcDbLine
 10
12.44427456152586
 20
4.929689432862588
 30
0.0
 11
12.44427456152586
 21
4.457558056085609
 31
0.0
  0
LINE
  5
6BB5
330
18
100
AcDbEntity
  8
0
100
AcDbLine
 10
11.90927456152586
 20
4.993623744474098
 30
0.0
 11
12.44427456152586
 21
4.693623744474098
 31
0.0
  0
LINE
  5
6BB6
330
18
100
AcDbEntity
  8
0
100
AcDbLine
 10
11.90927456152586
 20
4.693623744474098
 30
0.0
 11
11.90927456152586
 21
4.993623744474098
 31
0.0
  0
LINE
  5
6BB7
330
18
100
AcDbEntity
  8
0
100
AcDbLine
 10
10.94402668794386
 20
1.364327528218222
 30
0.0
 11
6.462610595824989
 21
1.364327528218222
 31
0.0
  0
LINE
  5
6BB8
330
18
100
AcDbEntity
  8
0
100
AcDbLine
 10
6.533885603254315
 20
1.408832553696414
 30
0.0
 11
10.87275168051454
 21
1.408832553696414
 31
0.0
  0
TEXT
  5
6BB9
330
18
100
AcDbEntity
  8
0
100
AcDbText
 10
6.607179548211364
 20
1.443994126457255
 30
0.0
 40
0.1125
  1
INFORMATION ONLY, NOT FOR MANUFACTURING
100
AcDbText
  0
ENDSEC
  0
SECTION
  2
OBJECTS
  0
DICTIONARY
  5
C
330
0
100
AcDbDictionary
281
     1
  3
ACAD_GROUP
350
D
  3
ACAD_LAYOUT
350
5DBF
  3
ACAD_MLINESTYLE
350
E
  3
ACAD_PLOTSETTINGS
350
5DC0
  3
ACAD_PLOTSTYLENAME
350
5DBD
  3
AcadDim
350
6A4F
  3
AcDbVariableDictionary
350
60EA
  3
CONTENTDICTIONARY
350
5903
  0
DICTIONARY
  5
D
102
{ACAD_REACTORS
330
C
102
}
330
C
100
AcDbDictionary
281
     1
  0
DICTIONARY
  5
5DBF
102
{ACAD_REACTORS
330
C
102
}
330
C
100
AcDbDictionary
281
     1
  3
Layout1
350
5DC2
  3
Model
350
5DC1
  0
DICTIONARY
  5
E
102
{ACAD_REACTORS
330
C
102
}
330
C
100
AcDbDictionary
281
     1
  3
STANDARD
350
1B
  0
DICTIONARY
  5
5DC0
102
{ACAD_REACTORS
330
C
102
}
330
C
100
AcDbDictionary
281
     1
  0
ACDBDICTIONARYWDFLT
  5
5DBD
102
{ACAD_REACTORS
330
C
102
}
330
C
100
AcDbDictionary
281
     1
  3
Normal
350
5DBE
100
AcDbDictionaryWithDefault
340
5DBE
  0
XRECORD
  5
6A4F
102
{ACAD_REACTORS
330
C
102
}
330
C
100
AcDbXrecord
280
     1
 90
   990106
  3

 60
     0
 61
     0
 62
     1
 63
     3
 64
     0
 65
     0
 66
     0
 67
     3
 68
     1
 69
     0
 70
     0
 71
     0
 72
     0
 40
0.0
170
     0
  0
DICTIONARY
  5
60EA
102
{ACAD_REACTORS
330
C
102
}
330
C
100
AcDbDictionary
281
     1
  3
SORTENTS
350
60EB
  0
DICTIONARY
  5
5903
102
{ACAD_REACTORS
330
C
102
}
330
C
100
AcDbDictionary
281
     1
1001
CONTENTTABDATA
1070
     7
1000
English Fasteners
1000
C:\Program Files\AutoCAD LT 97\Symbols\eengfast.dwg
1070
     0
1070
     0
1070
     1
1000
Metric Fasteners
1000
C:\Program Files\AutoCAD LT 97\Symbols\emetfast.dwg
1070
     0
1070
     0
1070
     1
1000
Welding
1000
C:\Program Files\AutoCAD LT 97\Symbols\ewelding.dwg
1070
     0
1070
     0
1070
     1
1000
Hyd-Pneu
1000
C:\Program Files\AutoCAD LT 97\Symbols\ehydpneu.dwg
1070
     0
1070
     0
1070
     1
1000
Pipe Fittings
1000
C:\Program Files\AutoCAD LT 97\Symbols\epipefit.dwg
1070
     0
1070
     0
1070
     1
1000
Plant Process
1000
C:\Program Files\AutoCAD LT 97\Symbols\eplntprc.dwg
1070
     0
1070
     0
1070
     1
1000
BLOCKS
1000
C:\BLOCKS
1070
     1
1070
     0
1070
     1
1001
CONTENTCURRENTTAB
1070
     7
  0
LAYOUT
  5
5DC2
102
{ACAD_REACTORS
330
5DBF
102
}
330
5DBF
100
AcDbPlotSettings
  1

  2
\\NTSRV1\PRINT10
  4

  6

 40
0.0
 41
0.0
 42
0.0
 43
0.0
 44
0.0
 45
0.0
 46
0.0
 47
0.0
 48
0.0
 49
0.0
140
0.0
141
0.0
142
1.0
143
1.0
 70
   688
 72
     0
 73
     0
 74
     5
  7
monochrome.ctb
 75
    16
147
1.0
148
0.0
149
0.0
100
AcDbLayout
  1
Layout1
 70
     0
 71
     1
 10
0.0
 20
0.0
 11
12.0
 21
9.0
 12
0.0
 22
0.0
 32
0.0
 14
1.000000000000000E+20
 24
1.000000000000000E+20
 34
1.000000000000000E+20
 15
-1.000000000000000E+20
 25
-1.000000000000000E+20
 35
-1.000000000000000E+20
146
0.0
 13
0.0
 23
0.0
 33
0.0
 16
1.0
 26
0.0
 36
0.0
 17
0.0
 27
1.0
 37
0.0
 76
     0
330
15
  0
LAYOUT
  5
5DC1
102
{ACAD_REACTORS
330
5DBF
102
}
330
5DBF
100
AcDbPlotSettings
  1

  2
Adobe PDF
  4
A4
  6

 40
3.174999952316284
 41
3.174999952316284
 42
3.175003051757812
 43
3.17498779296875
 44
209.9098358154297
 45
297.0318298339843
 46
7.639999999999999
 47
0.0
 48
0.0
 49
0.0
140
0.0
141
0.0
142
1.0
143
0.0585906669642387
 70
 11956
 72
     1
 73
     1
 74
     1
  7
monochrome.ctb
 75
     0
147
17.06756471317111
148
-0.187338458403957
149
-0.4763900948415128
100
AcDbLayout
  1
Model
 70
     1
 71
     0
 10
0.0
 20
0.0
 11
12.0
 21
9.0
 12
0.0
 22
0.0
 32
0.0
 14
0.0
 24
0.0
 34
0.0
 15
0.0
 25
0.0
 35
0.0
146
0.0
 13
0.0
 23
0.0
 33
0.0
 16
1.0
 26
0.0
 36
0.0
 17
0.0
 27
1.0
 37
0.0
 76
     0
330
18
  0
MLINESTYLE
  5
1B
102
{ACAD_REACTORS
330
E
102
}
330
E
100
AcDbMlineStyle
  2
STANDARD
 70
     0
  3

 62
     0
 51
90.0
 52
90.0
 71
     2
 49
0.5
 62
   256
  6
BYLAYER
 49
-0.5
 62
   256
  6
BYLAYER
  0
ACDBPLACEHOLDER
  5
5DBE
102
{ACAD_REACTORS
330
5DBD
102
}
330
5DBD
  0
DICTIONARYVAR
  5
60EB
102
{ACAD_REACTORS
330
60EA
102
}
330
60EA
100
DictionaryVariables
280
     0
  1
96
  0
ENDSEC
  0
EOF
