ISO-10303-21;
HEADER;
FILE_DESCRIPTION (( 'STEP AP203' ),
    '1' );
FILE_NAME ('TTN225631-E0W.STEP',
    '2022-08-12T15:57:05',
    ( '' ),
    ( '' ),
    'SwSTEP 2.0',
    'SolidWorks 2018',
    '' );
FILE_SCHEMA (( 'CONFIG_CONTROL_DESIGN' ));
ENDSEC;

DATA;
#1 = PRODUCT_DEFINITION_SHAPE ( 'NONE', 'NONE',  #111 ) ;
#2 = LINE ( 'NONE', #266, #59 ) ;
#3 = DIRECTION ( 'NONE',  ( 0.000000000000000000, 1.000000000000000000, 1.369617650732729889E-16 ) ) ;
#4 = PERSON_AND_ORGANIZATION ( #73, #208 ) ;
#5 = AXIS2_PLACEMENT_3D ( 'NONE', #145, #248, #119 ) ;
#6 = CARTESIAN_POINT ( 'NONE',  ( 0.000000000000000000, 0.000000000000000000, 0.04071299999999999919 ) ) ;
#7 = DIRECTION ( 'NONE',  ( -1.000000000000000000, 0.000000000000000000, -0.000000000000000000 ) ) ;
#8 = VERTEX_POINT ( 'NONE', #176 ) ;
#9 = APPROVAL_DATE_TIME ( #272, #182 ) ;
#10 = EDGE_LOOP ( 'NONE', ( #74, #232, #140, #19 ) ) ;
#11 = CARTESIAN_POINT ( 'NONE',  ( 0.000000000000000000, -0.01269999999999999948, 0.0001317497862068963137 ) ) ;
#12 = ADVANCED_FACE ( 'NONE', ( #84 ), #229, .T. ) ;
#13 = DIRECTION ( 'NONE',  ( 0.000000000000000000, 1.836909530733589800E-16, -1.000000000000000000 ) ) ;
#14 = CARTESIAN_POINT ( 'NONE',  ( 1.555301434917138519E-18, 0.01269999999999999948, 0.0001317497862069009758 ) ) ;
#15 = LINE ( 'NONE', #38, #255 ) ;
#16 = LOCAL_TIME ( 11, 57, 5.000000000000000000, #61 ) ;
#17 = DIRECTION ( 'NONE',  ( 0.000000000000000000, 0.000000000000000000, -1.000000000000000000 ) ) ;
#18 = PERSON_AND_ORGANIZATION_ROLE ( 'creator' ) ;
#19 = ORIENTED_EDGE ( 'NONE', *, *, #157, .F. ) ;
#20 = APPROVAL_DATE_TIME ( #177, #284 ) ;
#21 = VERTEX_POINT ( 'NONE', #319 ) ;
#22 = AXIS2_PLACEMENT_3D ( 'NONE', #120, #194, #17 ) ;
#23 = DATE_TIME_ROLE ( 'creation_date' ) ;
#24 = CARTESIAN_POINT ( 'NONE',  ( 0.000000000000000000, 0.000000000000000000, 0.002000000000000000042 ) ) ;
#25 = EDGE_CURVE ( 'NONE', #81, #252, #204, .T. ) ;
#26 = EDGE_LOOP ( 'NONE', ( #155, #310, #164 ) ) ;
#27 = VECTOR ( 'NONE', #212, 1.000000000000000000 ) ;
#28 = AXIS2_PLACEMENT_3D ( 'NONE', #217, #265, #146 ) ;
#29 = EDGE_CURVE ( 'NONE', #179, #21, #291, .T. ) ;
#30 = ORIENTED_EDGE ( 'NONE', *, *, #29, .T. ) ;
#31 = ORIENTED_EDGE ( 'NONE', *, *, #276, .F. ) ;
#32 = DIRECTION ( 'NONE',  ( 0.000000000000000000, 1.836909530733490699E-16, -1.000000000000000000 ) ) ;
#33 = DIRECTION ( 'NONE',  ( 0.000000000000000000, 0.7907831674250968002, -0.6120963830289568586 ) ) ;
#34 = FACE_OUTER_BOUND ( 'NONE', #273, .T. ) ;
#35 = DIRECTION ( 'NONE',  ( 0.000000000000000000, 1.000000000000000000, 1.369617650732729889E-16 ) ) ;
#36 = EDGE_CURVE ( 'NONE', #216, #8, #135, .T. ) ;
#37 = ADVANCED_FACE ( 'NONE', ( #34 ), #153, .T. ) ;
#38 = CARTESIAN_POINT ( 'NONE',  ( 1.555301434917138519E-18, 0.01269999999999999948, 0.002000000000000002210 ) ) ;
#39 = ORIENTED_EDGE ( 'NONE', *, *, #173, .T. ) ;
#40 = LOCAL_TIME ( 11, 57, 5.000000000000000000, #299 ) ;
#41 = EDGE_CURVE ( 'NONE', #130, #216, #236, .T. ) ;
#42 = DIRECTION ( 'NONE',  ( -0.000000000000000000, -1.836909530733589800E-16, 1.000000000000000000 ) ) ;
#43 = CARTESIAN_POINT ( 'NONE',  ( 0.000000000000000000, 0.000000000000000000, 0.05266299999999998760 ) ) ;
#44 = AXIS2_PLACEMENT_3D ( 'NONE', #312, #13, #192 ) ;
#45 =( GEOMETRIC_REPRESENTATION_CONTEXT ( 3 ) GLOBAL_UNCERTAINTY_ASSIGNED_CONTEXT ( ( #209 ) ) GLOBAL_UNIT_ASSIGNED_CONTEXT ( ( #99, #317, #201 ) ) REPRESENTATION_CONTEXT ( 'NONE', 'WORKASPACE' ) );
#46 = AXIS2_PLACEMENT_3D ( 'NONE', #258, #305, #3 ) ;
#47 = VERTEX_POINT ( 'NONE', #283 ) ;
#48 = APPROVAL_PERSON_ORGANIZATION ( #54, #284, #72 ) ;
#49 = FACE_OUTER_BOUND ( 'NONE', #65, .T. ) ;
#50 = CYLINDRICAL_SURFACE ( 'NONE', #323, 0.01269999999999999948 ) ;
#51 = CC_DESIGN_APPROVAL ( #254, ( #293 ) ) ;
#52 = AXIS2_PLACEMENT_3D ( 'NONE', #43, #267, #68 ) ;
#53 = ORIENTED_EDGE ( 'NONE', *, *, #202, .F. ) ;
#54 = PERSON_AND_ORGANIZATION ( #73, #208 ) ;
#55 = CIRCLE ( 'NONE', #52, 0.05066299999999999276 ) ;
#56 = CARTESIAN_POINT ( 'NONE',  ( 0.000000000000000000, 9.018346183361725520E-18, 0.003567788545788423693 ) ) ;
#57 = CARTESIAN_POINT ( 'NONE',  ( 0.000000000000000000, -2.604034639217518104E-19, 0.003417617250958245034 ) ) ;
#58 = ORIENTED_EDGE ( 'NONE', *, *, #127, .F. ) ;
#59 = VECTOR ( 'NONE', #261, 1.000000000000000000 ) ;
#60 = AXIS2_PLACEMENT_3D ( 'NONE', #168, #141, #313 ) ;
#61 = COORDINATED_UNIVERSAL_TIME_OFFSET ( 5, 0, .BEHIND. ) ;
#62 = DIRECTION ( 'NONE',  ( -0.000000000000000000, -1.836909530733589800E-16, 1.000000000000000000 ) ) ;
#63 = AXIS2_PLACEMENT_3D ( 'NONE', #215, #239, #285 ) ;
#64 = DIRECTION ( 'NONE',  ( 0.000000000000000000, -1.000000000000000000, -1.733892620220671197E-16 ) ) ;
#65 = EDGE_LOOP ( 'NONE', ( #203, #295, #271 ) ) ;
#66 = ADVANCED_FACE ( 'NONE', ( #106 ), #322, .F. ) ;
#67 = CARTESIAN_POINT ( 'NONE',  ( 0.000000000000000000, 0.01250598981553449618, 0.003567788545788424560 ) ) ;
#68 = DIRECTION ( 'NONE',  ( -1.224646799147353207E-16, -1.000000000000000000, 0.000000000000000000 ) ) ;
#69 = DIRECTION ( 'NONE',  ( 1.000000000000000000, 0.000000000000000000, 0.000000000000000000 ) ) ;
#70 = ORIENTED_EDGE ( 'NONE', *, *, #262, .T. ) ;
#71 = SPHERICAL_SURFACE ( 'NONE', #46, 0.05066299999999999276 ) ;
#72 = APPROVAL_ROLE ( '' ) ;
#73 = PERSON ( 'UNSPECIFIED', 'UNSPECIFIED', 'UNSPECIFIED', ('UNSPECIFIED'), ('UNSPECIFIED'), ('UNSPECIFIED') ) ;
#74 = ORIENTED_EDGE ( 'NONE', *, *, #98, .F. ) ;
#75 = ORIENTED_EDGE ( 'NONE', *, *, #294, .F. ) ;
#76 = EDGE_CURVE ( 'NONE', #47, #21, #318, .T. ) ;
#77 = APPLICATION_CONTEXT ( 'configuration controlled 3d designs of mechanical parts and assemblies' ) ;
#78 = CC_DESIGN_PERSON_AND_ORGANIZATION_ASSIGNMENT ( #250, #123, ( #230 ) ) ;
#79 = ADVANCED_BREP_SHAPE_REPRESENTATION ( 'TTN225631-E0W', ( #260, #220 ), #45 ) ;
#80 = FACE_OUTER_BOUND ( 'NONE', #279, .T. ) ;
#81 = VERTEX_POINT ( 'NONE', #136 ) ;
#82 = SHAPE_DEFINITION_REPRESENTATION ( #1, #79 ) ;
#83 = ORIENTED_EDGE ( 'NONE', *, *, #276, .T. ) ;
#84 = FACE_OUTER_BOUND ( 'NONE', #103, .T. ) ;
#85 = FACE_OUTER_BOUND ( 'NONE', #10, .T. ) ;
#86 = LOCAL_TIME ( 11, 57, 5.000000000000000000, #269 ) ;
#87 = CC_DESIGN_SECURITY_CLASSIFICATION ( #293, ( #230 ) ) ;
#88 = CARTESIAN_POINT ( 'NONE',  ( 0.000000000000000000, 5.230574742023236630E-18, -0.002000000000000001776 ) ) ;
#89 = CARTESIAN_POINT ( 'NONE',  ( 0.000000000000000000, 9.018346183361725520E-18, 0.003567788545788423693 ) ) ;
#90 = ORIENTED_EDGE ( 'NONE', *, *, #197, .T. ) ;
#91 = ORIENTED_EDGE ( 'NONE', *, *, #210, .T. ) ;
#92 = CARTESIAN_POINT ( 'NONE',  ( 0.000000000000000000, 0.000000000000000000, 0.04071299999999999919 ) ) ;
#93 = CARTESIAN_POINT ( 'NONE',  ( 0.000000000000000000, 3.431806623511574076E-19, 0.0001317497862068986447 ) ) ;
#94 = ADVANCED_FACE ( 'NONE', ( #49 ), #71, .F. ) ;
#95 = CARTESIAN_POINT ( 'NONE',  ( 0.000000000000000000, -0.01250951054292270478, -0.0001270846592720195904 ) ) ;
#96 = DIRECTION ( 'NONE',  ( 0.000000000000000000, -1.000000000000000000, -1.624539110787635586E-16 ) ) ;
#97 = PRODUCT ( 'TTN225631-E0W', 'TTN225631-E0W', '', ( #102 ) ) ;
#98 = EDGE_CURVE ( 'NONE', #47, #227, #233, .T. ) ;
#99 =( LENGTH_UNIT ( ) NAMED_UNIT ( * ) SI_UNIT ( $, .METRE. ) );
#100 = VECTOR ( 'NONE', #193, 1.000000000000000000 ) ;
#101 = EDGE_CURVE ( 'NONE', #252, #21, #300, .T. ) ;
#102 = MECHANICAL_CONTEXT ( 'NONE', #225, 'mechanical' ) ;
#103 = EDGE_LOOP ( 'NONE', ( #280, #83, #30, #124 ) ) ;
#104 = DATE_AND_TIME ( #282, #16 ) ;
#105 = AXIS2_PLACEMENT_3D ( 'NONE', #186, #160, #35 ) ;
#106 = FACE_OUTER_BOUND ( 'NONE', #222, .T. ) ;
#107 = AXIS2_PLACEMENT_3D ( 'NONE', #308, #69, #96 ) ;
#108 = EDGE_LOOP ( 'NONE', ( #150, #199, #298, #188 ) ) ;
#109 = DATE_AND_TIME ( #189, #131 ) ;
#110 = FACE_OUTER_BOUND ( 'NONE', #132, .T. ) ;
#111 = PRODUCT_DEFINITION ( 'UNKNOWN', '', #230, #206 ) ;
#112 = DIRECTION ( 'NONE',  ( 0.000000000000000000, 1.836909530733589800E-16, -1.000000000000000000 ) ) ;
#113 = DIRECTION ( 'NONE',  ( 0.000000000000000000, 1.836909530733490699E-16, -1.000000000000000000 ) ) ;
#114 = VECTOR ( 'NONE', #33, 1.000000000000000000 ) ;
#115 = DIRECTION ( 'NONE',  ( 1.000000000000000000, 0.000000000000000000, 0.000000000000000000 ) ) ;
#116 = DIRECTION ( 'NONE',  ( -0.000000000000000000, -1.836909530733490699E-16, 1.000000000000000000 ) ) ;
#117 = DIRECTION ( 'NONE',  ( 0.000000000000000000, 0.000000000000000000, 1.000000000000000000 ) ) ;
#118 = ORIENTED_EDGE ( 'NONE', *, *, #142, .F. ) ;
#119 = DIRECTION ( 'NONE',  ( 1.224646799147353207E-16, 1.000000000000000000, 0.000000000000000000 ) ) ;
#120 = CARTESIAN_POINT ( 'NONE',  ( 0.000000000000000000, 0.000000000000000000, 0.05266299999999998760 ) ) ;
#121 = ADVANCED_FACE ( 'NONE', ( #85 ), #158, .T. ) ;
#122 = CONICAL_SURFACE ( 'NONE', #60, 0.01269999999999999948, 0.6344489211349145785 ) ;
#123 = PERSON_AND_ORGANIZATION_ROLE ( 'design_supplier' ) ;
#124 = ORIENTED_EDGE ( 'NONE', *, *, #101, .F. ) ;
#125 = LOCAL_TIME ( 11, 57, 5.000000000000000000, #180 ) ;
#126 = CIRCLE ( 'NONE', #22, 0.05066299999999999276 ) ;
#127 = EDGE_CURVE ( 'NONE', #21, #179, #277, .T. ) ;
#128 = APPROVAL_ROLE ( '' ) ;
#129 = FACE_OUTER_BOUND ( 'NONE', #108, .T. ) ;
#130 = VERTEX_POINT ( 'NONE', #88 ) ;
#131 = LOCAL_TIME ( 11, 57, 5.000000000000000000, #200 ) ;
#132 = EDGE_LOOP ( 'NONE', ( #263, #39, #91 ) ) ;
#133 = AXIS2_PLACEMENT_3D ( 'NONE', #92, #115, #307 ) ;
#134 = CARTESIAN_POINT ( 'NONE',  ( 0.000000000000000000, 7.501954074658344524E-18, -0.0001270846592720184520 ) ) ;
#135 = CIRCLE ( 'NONE', #148, 0.01250951054292270652 ) ;
#136 = CARTESIAN_POINT ( 'NONE',  ( 1.555301434917138519E-18, 0.01269999999999999948, 0.0001317497862069009758 ) ) ;
#137 = DIRECTION ( 'NONE',  ( 0.000000000000000000, 1.000000000000000000, 1.707404996040164512E-16 ) ) ;
#138 = CARTESIAN_POINT ( 'NONE',  ( 1.531542039776368657E-18, -0.01250598981553447016, 0.003567788545788414586 ) ) ;
#139 = EDGE_LOOP ( 'NONE', ( #31, #290, #326, #240 ) ) ;
#140 = ORIENTED_EDGE ( 'NONE', *, *, #29, .F. ) ;
#141 = DIRECTION ( 'NONE',  ( -0.000000000000000000, -1.836909530733589800E-16, 1.000000000000000000 ) ) ;
#142 = EDGE_CURVE ( 'NONE', #227, #47, #175, .T. ) ;
#143 = ADVANCED_FACE ( 'NONE', ( #110 ), #249, .T. ) ;
#144 = CARTESIAN_POINT ( 'NONE',  ( 0.000000000000000000, 1.240854879481558126E-17, 0.001999999999999994837 ) ) ;
#145 = CARTESIAN_POINT ( 'NONE',  ( 0.000000000000000000, 0.000000000000000000, 0.04071299999999999919 ) ) ;
#146 = DIRECTION ( 'NONE',  ( 0.000000000000000000, -1.000000000000000000, -1.835460370743176819E-16 ) ) ;
#147 = CC_DESIGN_PERSON_AND_ORGANIZATION_ASSIGNMENT ( #241, #270, ( #97 ) ) ;
#148 = AXIS2_PLACEMENT_3D ( 'NONE', #134, #112, #211 ) ;
#149 = DATE_TIME_ROLE ( 'classification_date' ) ;
#150 = ORIENTED_EDGE ( 'NONE', *, *, #262, .F. ) ;
#151 = VERTEX_POINT ( 'NONE', #144 ) ;
#152 = APPROVAL_ROLE ( '' ) ;
#153 = CONICAL_SURFACE ( 'NONE', #268, 0.01250598981553447016, 0.9120874258383377953 ) ;
#154 = PERSON_AND_ORGANIZATION ( #73, #208 ) ;
#155 = ORIENTED_EDGE ( 'NONE', *, *, #173, .F. ) ;
#156 = APPROVAL_PERSON_ORGANIZATION ( #4, #254, #128 ) ;
#157 = EDGE_CURVE ( 'NONE', #227, #179, #281, .T. ) ;
#158 = CONICAL_SURFACE ( 'NONE', #63, 0.01250598981553447016, 0.9120874258383377953 ) ;
#159 = DIRECTION ( 'NONE',  ( 0.000000000000000000, 1.000000000000000000, 1.733892620220670950E-16 ) ) ;
#160 = DIRECTION ( 'NONE',  ( -1.000000000000000000, 0.000000000000000000, 0.000000000000000000 ) ) ;
#161 = LINE ( 'NONE', #14, #100 ) ;
#162 = DIRECTION ( 'NONE',  ( 0.000000000000000000, -1.000000000000000000, -1.733892620220671197E-16 ) ) ;
#163 = DIRECTION ( 'NONE',  ( -0.000000000000000000, -1.836909530733566134E-16, 1.000000000000000000 ) ) ;
#164 = ORIENTED_EDGE ( 'NONE', *, *, #36, .T. ) ;
#165 = CARTESIAN_POINT ( 'NONE',  ( 1.555301434917138519E-18, 0.01269999999999999948, 0.003417617250958247203 ) ) ;
#166 = CONICAL_SURFACE ( 'NONE', #231, 0.01269999999999999948, 0.6344489211349145785 ) ;
#167 = AXIS2_PLACEMENT_3D ( 'NONE', #213, #62, #256 ) ;
#168 = CARTESIAN_POINT ( 'NONE',  ( 0.000000000000000000, 3.431806623511574076E-19, 0.0001317497862068986447 ) ) ;
#169 = CALENDAR_DATE ( 2022, 12, 8 ) ;
#170 = SECURITY_CLASSIFICATION_LEVEL ( 'unclassified' ) ;
#171 = APPLICATION_PROTOCOL_DEFINITION ( 'international standard', 'config_control_design', 1994, #225 ) ;
#172 = APPROVAL_STATUS ( 'not_yet_approved' ) ;
#173 = EDGE_CURVE ( 'NONE', #130, #8, #306, .T. ) ;
#174 = APPROVAL_PERSON_ORGANIZATION ( #287, #182, #152 ) ;
#175 = CIRCLE ( 'NONE', #219, 0.01250598981553446842 ) ;
#176 = CARTESIAN_POINT ( 'NONE',  ( 1.531973204529036657E-18, 0.01250951054292271866, -0.0001270846592720173136 ) ) ;
#177 = DATE_AND_TIME ( #223, #40 ) ;
#178 = AXIS2_PLACEMENT_3D ( 'NONE', #56, #185, #162 ) ;
#179 = VERTEX_POINT ( 'NONE', #165 ) ;
#180 = COORDINATED_UNIVERSAL_TIME_OFFSET ( 5, 0, .BEHIND. ) ;
#181 = CARTESIAN_POINT ( 'NONE',  ( 0.000000000000000000, -2.604034639217518104E-19, 0.003417617250958245034 ) ) ;
#182 = APPROVAL ( #221, 'UNSPECIFIED' ) ;
#183 = FACE_OUTER_BOUND ( 'NONE', #139, .T. ) ;
#184 = CARTESIAN_POINT ( 'NONE',  ( 0.000000000000000000, -2.879885721933658661E-19, 0.003567788545788416754 ) ) ;
#185 = DIRECTION ( 'NONE',  ( -0.000000000000000000, -1.836909530733490699E-16, 1.000000000000000000 ) ) ;
#186 = CARTESIAN_POINT ( 'NONE',  ( 0.000000000000000000, 0.000000000000000000, 0.05266299999999998760 ) ) ;
#187 = DIRECTION ( 'NONE',  ( 0.000000000000000000, -1.000000000000000000, -1.707404996040164512E-16 ) ) ;
#188 = ORIENTED_EDGE ( 'NONE', *, *, #25, .F. ) ;
#189 = CALENDAR_DATE ( 2022, 12, 8 ) ;
#190 = SPHERICAL_SURFACE ( 'NONE', #107, 0.04271300000000000097 ) ;
#191 = EDGE_CURVE ( 'NONE', #252, #81, #244, .T. ) ;
#192 = DIRECTION ( 'NONE',  ( 0.000000000000000000, -1.000000000000000000, -1.841742415601665676E-16 ) ) ;
#193 = DIRECTION ( 'NONE',  ( 7.258895096593757650E-17, 0.5927337663110442412, 0.8053984618030534115 ) ) ;
#194 = DIRECTION ( 'NONE',  ( 1.000000000000000000, 0.000000000000000000, 0.000000000000000000 ) ) ;
#195 = VECTOR ( 'NONE', #304, 1.000000000000000000 ) ;
#196 = CC_DESIGN_PERSON_AND_ORGANIZATION_ASSIGNMENT ( #154, #224, ( #293 ) ) ;
#197 = EDGE_CURVE ( 'NONE', #151, #227, #126, .T. ) ;
#198 = PERSON_AND_ORGANIZATION_ROLE ( 'creator' ) ;
#199 = ORIENTED_EDGE ( 'NONE', *, *, #36, .F. ) ;
#200 = COORDINATED_UNIVERSAL_TIME_OFFSET ( 5, 0, .BEHIND. ) ;
#201 =( NAMED_UNIT ( * ) SI_UNIT ( $, .STERADIAN. ) SOLID_ANGLE_UNIT ( ) );
#202 = EDGE_CURVE ( 'NONE', #216, #252, #2, .T. ) ;
#203 = ORIENTED_EDGE ( 'NONE', *, *, #197, .F. ) ;
#204 = CIRCLE ( 'NONE', #167, 0.01269999999999999948 ) ;
#205 = CC_DESIGN_DATE_AND_TIME_ASSIGNMENT ( #104, #149, ( #293 ) ) ;
#206 = DESIGN_CONTEXT ( 'detailed design', #77, 'design' ) ;
#207 = ORIENTED_EDGE ( 'NONE', *, *, #157, .T. ) ;
#208 = ORGANIZATION ( 'UNSPECIFIED', 'UNSPECIFIED', '' ) ;
#209 = UNCERTAINTY_MEASURE_WITH_UNIT (LENGTH_MEASURE( 1.000000000000000082E-05 ), #99, 'distance_accuracy_value', 'NONE');
#210 = EDGE_CURVE ( 'NONE', #8, #216, #315, .T. ) ;
#211 = DIRECTION ( 'NONE',  ( 0.000000000000000000, -1.000000000000000000, -1.841742415601665676E-16 ) ) ;
#212 = DIRECTION ( 'NONE',  ( 9.684300748067501574E-17, -0.7907831674250965781, -0.6120963830289570806 ) ) ;
#213 = CARTESIAN_POINT ( 'NONE',  ( 0.000000000000000000, 3.431806623511570706E-19, 0.0001317497862068986447 ) ) ;
#214 = ORIENTED_EDGE ( 'NONE', *, *, #76, .F. ) ;
#215 = CARTESIAN_POINT ( 'NONE',  ( 0.000000000000000000, -2.879885721933658661E-19, 0.003567788545788416754 ) ) ;
#216 = VERTEX_POINT ( 'NONE', #95 ) ;
#217 = CARTESIAN_POINT ( 'NONE',  ( 0.000000000000000000, 3.431806623511570706E-19, 0.0001317497862068986447 ) ) ;
#218 = CARTESIAN_POINT ( 'NONE',  ( 0.000000000000000000, 0.000000000000000000, 0.002000000000000000042 ) ) ;
#219 = AXIS2_PLACEMENT_3D ( 'NONE', #89, #116, #64 ) ;
#220 = AXIS2_PLACEMENT_3D ( 'NONE', #247, #117, #274 ) ;
#221 = APPROVAL_STATUS ( 'not_yet_approved' ) ;
#222 = EDGE_LOOP ( 'NONE', ( #75, #90, #251 ) ) ;
#223 = CALENDAR_DATE ( 2022, 12, 8 ) ;
#224 = PERSON_AND_ORGANIZATION_ROLE ( 'classification_officer' ) ;
#225 = APPLICATION_CONTEXT ( 'configuration controlled 3d designs of mechanical parts and assemblies' ) ;
#226 = AXIS2_PLACEMENT_3D ( 'NONE', #6, #7, #288 ) ;
#227 = VERTEX_POINT ( 'NONE', #67 ) ;
#228 = DATE_AND_TIME ( #169, #86 ) ;
#229 = CYLINDRICAL_SURFACE ( 'NONE', #245, 0.01269999999999999948 ) ;
#230 = PRODUCT_DEFINITION_FORMATION_WITH_SPECIFIED_SOURCE ( 'ANY', '', #97, .NOT_KNOWN. ) ;
#231 = AXIS2_PLACEMENT_3D ( 'NONE', #93, #42, #289 ) ;
#232 = ORIENTED_EDGE ( 'NONE', *, *, #76, .T. ) ;
#233 = CIRCLE ( 'NONE', #178, 0.01250598981553446842 ) ;
#234 = CARTESIAN_POINT ( 'NONE',  ( 0.000000000000000000, 0.01250598981553447016, 0.003567788545788418923 ) ) ;
#235 = CC_DESIGN_PERSON_AND_ORGANIZATION_ASSIGNMENT ( #264, #198, ( #111 ) ) ;
#236 = CIRCLE ( 'NONE', #226, 0.04271300000000000097 ) ;
#237 = APPROVAL_DATE_TIME ( #228, #254 ) ;
#238 = CARTESIAN_POINT ( 'NONE',  ( 0.000000000000000000, -0.01269999999999999948, 0.001999999999999997873 ) ) ;
#239 = DIRECTION ( 'NONE',  ( 0.000000000000000000, 1.836909530733490699E-16, -1.000000000000000000 ) ) ;
#240 = ORIENTED_EDGE ( 'NONE', *, *, #127, .T. ) ;
#241 = PERSON_AND_ORGANIZATION ( #73, #208 ) ;
#242 = ADVANCED_FACE ( 'NONE', ( #80 ), #122, .T. ) ;
#243 = DIRECTION ( 'NONE',  ( -0.000000000000000000, -1.836909530733566134E-16, 1.000000000000000000 ) ) ;
#244 = CIRCLE ( 'NONE', #28, 0.01269999999999999948 ) ;
#245 = AXIS2_PLACEMENT_3D ( 'NONE', #24, #296, #320 ) ;
#246 = ADVANCED_FACE ( 'NONE', ( #129 ), #166, .T. ) ;
#247 = CARTESIAN_POINT ( 'NONE',  ( 0.000000000000000000, 0.000000000000000000, 0.000000000000000000 ) ) ;
#248 = DIRECTION ( 'NONE',  ( 1.000000000000000000, -1.224646799147353207E-16, -2.249565377136128279E-32 ) ) ;
#249 = SPHERICAL_SURFACE ( 'NONE', #133, 0.04271300000000000097 ) ;
#250 = PERSON_AND_ORGANIZATION ( #73, #208 ) ;
#251 = ORIENTED_EDGE ( 'NONE', *, *, #142, .T. ) ;
#252 = VERTEX_POINT ( 'NONE', #11 ) ;
#253 = FACE_OUTER_BOUND ( 'NONE', #26, .T. ) ;
#254 = APPROVAL ( #172, 'UNSPECIFIED' ) ;
#255 = VECTOR ( 'NONE', #163, 1.000000000000000000 ) ;
#256 = DIRECTION ( 'NONE',  ( 0.000000000000000000, -1.000000000000000000, -1.835460370743176819E-16 ) ) ;
#257 = DIRECTION ( 'NONE',  ( 0.000000000000000000, 1.000000000000000000, 1.707404996040164512E-16 ) ) ;
#258 = CARTESIAN_POINT ( 'NONE',  ( 0.000000000000000000, 0.000000000000000000, 0.05266299999999998760 ) ) ;
#259 = CC_DESIGN_DATE_AND_TIME_ASSIGNMENT ( #109, #23, ( #111 ) ) ;
#260 = MANIFOLD_SOLID_BREP ( 'TTN225643-1-solid1', #286 ) ;
#261 = DIRECTION ( 'NONE',  ( 0.000000000000000000, -0.5927337663110444632, 0.8053984618030531895 ) ) ;
#262 = EDGE_CURVE ( 'NONE', #8, #81, #161, .T. ) ;
#263 = ORIENTED_EDGE ( 'NONE', *, *, #41, .F. ) ;
#264 = PERSON_AND_ORGANIZATION ( #73, #208 ) ;
#265 = DIRECTION ( 'NONE',  ( -0.000000000000000000, -1.836909530733589800E-16, 1.000000000000000000 ) ) ;
#266 = CARTESIAN_POINT ( 'NONE',  ( 0.000000000000000000, -0.01269999999999999948, 0.0001317497862068963137 ) ) ;
#267 = DIRECTION ( 'NONE',  ( -1.000000000000000000, 1.224646799147353207E-16, 2.249565377136128279E-32 ) ) ;
#268 = AXIS2_PLACEMENT_3D ( 'NONE', #184, #302, #159 ) ;
#269 = COORDINATED_UNIVERSAL_TIME_OFFSET ( 5, 0, .BEHIND. ) ;
#270 = PERSON_AND_ORGANIZATION_ROLE ( 'design_owner' ) ;
#271 = ORIENTED_EDGE ( 'NONE', *, *, #98, .T. ) ;
#272 = DATE_AND_TIME ( #325, #125 ) ;
#273 = EDGE_LOOP ( 'NONE', ( #214, #118, #207, #58 ) ) ;
#274 = DIRECTION ( 'NONE',  ( 1.000000000000000000, 0.000000000000000000, 0.000000000000000000 ) ) ;
#275 = APPROVAL_STATUS ( 'not_yet_approved' ) ;
#276 = EDGE_CURVE ( 'NONE', #81, #179, #15, .T. ) ;
#277 = CIRCLE ( 'NONE', #301, 0.01269999999999999948 ) ;
#278 = PERSON_AND_ORGANIZATION ( #73, #208 ) ;
#279 = EDGE_LOOP ( 'NONE', ( #314, #70, #324, #53 ) ) ;
#280 = ORIENTED_EDGE ( 'NONE', *, *, #191, .T. ) ;
#281 = LINE ( 'NONE', #234, #114 ) ;
#282 = CALENDAR_DATE ( 2022, 12, 8 ) ;
#283 = CARTESIAN_POINT ( 'NONE',  ( -1.531542039776370969E-18, -0.01250598981553447883, 0.003567788545788422826 ) ) ;
#284 = APPROVAL ( #275, 'UNSPECIFIED' ) ;
#285 = DIRECTION ( 'NONE',  ( 0.000000000000000000, 1.000000000000000000, 1.733892620220670950E-16 ) ) ;
#286 = CLOSED_SHELL ( 'NONE', ( #121, #242, #12, #143, #94, #66, #309, #311, #246, #37 ) ) ;
#287 = PERSON_AND_ORGANIZATION ( #73, #208 ) ;
#288 = DIRECTION ( 'NONE',  ( 0.000000000000000000, 0.000000000000000000, 1.000000000000000000 ) ) ;
#289 = DIRECTION ( 'NONE',  ( 0.000000000000000000, -1.000000000000000000, -1.835460370743176819E-16 ) ) ;
#290 = ORIENTED_EDGE ( 'NONE', *, *, #25, .T. ) ;
#291 = CIRCLE ( 'NONE', #327, 0.01269999999999999948 ) ;
#292 = APPLICATION_PROTOCOL_DEFINITION ( 'international standard', 'config_control_design', 1994, #77 ) ;
#293 = SECURITY_CLASSIFICATION ( '', '', #170 ) ;
#294 = EDGE_CURVE ( 'NONE', #151, #47, #55, .T. ) ;
#295 = ORIENTED_EDGE ( 'NONE', *, *, #294, .T. ) ;
#296 = DIRECTION ( 'NONE',  ( -0.000000000000000000, -1.836909530733566134E-16, 1.000000000000000000 ) ) ;
#297 = PRODUCT_RELATED_PRODUCT_CATEGORY ( 'detail', '', ( #97 ) ) ;
#298 = ORIENTED_EDGE ( 'NONE', *, *, #202, .T. ) ;
#299 = COORDINATED_UNIVERSAL_TIME_OFFSET ( 5, 0, .BEHIND. ) ;
#300 = LINE ( 'NONE', #238, #195 ) ;
#301 = AXIS2_PLACEMENT_3D ( 'NONE', #57, #113, #257 ) ;
#302 = DIRECTION ( 'NONE',  ( 0.000000000000000000, 1.836909530733490699E-16, -1.000000000000000000 ) ) ;
#303 = CC_DESIGN_PERSON_AND_ORGANIZATION_ASSIGNMENT ( #278, #18, ( #230 ) ) ;
#304 = DIRECTION ( 'NONE',  ( -0.000000000000000000, -1.836909530733566134E-16, 1.000000000000000000 ) ) ;
#305 = DIRECTION ( 'NONE',  ( -1.000000000000000000, 0.000000000000000000, 0.000000000000000000 ) ) ;
#306 = CIRCLE ( 'NONE', #5, 0.04271300000000000097 ) ;
#307 = DIRECTION ( 'NONE',  ( 0.000000000000000000, -1.000000000000000000, -1.624539110787635586E-16 ) ) ;
#308 = CARTESIAN_POINT ( 'NONE',  ( 0.000000000000000000, 0.000000000000000000, 0.04071299999999999919 ) ) ;
#309 = ADVANCED_FACE ( 'NONE', ( #253 ), #190, .T. ) ;
#310 = ORIENTED_EDGE ( 'NONE', *, *, #41, .T. ) ;
#311 = ADVANCED_FACE ( 'NONE', ( #183 ), #50, .T. ) ;
#312 = CARTESIAN_POINT ( 'NONE',  ( 0.000000000000000000, 7.501954074658344524E-18, -0.0001270846592720184520 ) ) ;
#313 = DIRECTION ( 'NONE',  ( 0.000000000000000000, -1.000000000000000000, -1.835460370743176819E-16 ) ) ;
#314 = ORIENTED_EDGE ( 'NONE', *, *, #210, .F. ) ;
#315 = CIRCLE ( 'NONE', #44, 0.01250951054292270652 ) ;
#316 = CC_DESIGN_APPROVAL ( #182, ( #111 ) ) ;
#317 =( NAMED_UNIT ( * ) PLANE_ANGLE_UNIT ( ) SI_UNIT ( $, .RADIAN. ) );
#318 = LINE ( 'NONE', #138, #27 ) ;
#319 = CARTESIAN_POINT ( 'NONE',  ( 0.000000000000000000, -0.01269999999999999948, 0.003417617250958242866 ) ) ;
#320 = DIRECTION ( 'NONE',  ( 0.000000000000000000, -1.000000000000000000, -1.707404996040164512E-16 ) ) ;
#321 = CC_DESIGN_APPROVAL ( #284, ( #230 ) ) ;
#322 = SPHERICAL_SURFACE ( 'NONE', #105, 0.05066299999999999276 ) ;
#323 = AXIS2_PLACEMENT_3D ( 'NONE', #218, #243, #187 ) ;
#324 = ORIENTED_EDGE ( 'NONE', *, *, #191, .F. ) ;
#325 = CALENDAR_DATE ( 2022, 12, 8 ) ;
#326 = ORIENTED_EDGE ( 'NONE', *, *, #101, .T. ) ;
#327 = AXIS2_PLACEMENT_3D ( 'NONE', #181, #32, #137 ) ;
ENDSEC;
END-ISO-10303-21;
