ISO-10303-21;
HEADER;
FILE_DESCRIPTION (( 'STEP AP203' ),
    '1' );
FILE_NAME ('TTN146940-E0W.STEP',
    '2018-03-12T15:35:17',
    ( '' ),
    ( '' ),
    'SwSTEP 2.0',
    'SolidWorks 2016',
    '' );
FILE_SCHEMA (( 'CONFIG_CONTROL_DESIGN' ));
ENDSEC;

DATA;
#1 = COORDINATED_UNIVERSAL_TIME_OFFSET ( 5, 0, .BEHIND. ) ;
#2 = CARTESIAN_POINT ( 'NONE',  ( 3.349999999999996500, 4.102566777143628800E-016, 1.000000000000000000 ) ) ;
#3 = DIRECTION ( 'NONE',  ( 0.7071067811865505700, 8.659560562354969800E-017, -0.7071067811865444600 ) ) ;
#4 = CARTESIAN_POINT ( 'NONE',  ( 0.0000000000000000000, 0.0000000000000000000, 1.000000000000000000 ) ) ;
#5 = ORIENTED_EDGE ( 'NONE', *, *, #184, .T. ) ;
#6 = DATE_TIME_ROLE ( 'creation_date' ) ;
#7 = FACE_OUTER_BOUND ( 'NONE', #83, .T. ) ;
#8 = DIRECTION ( 'NONE',  ( -0.0000000000000000000, -0.0000000000000000000, 1.000000000000000000 ) ) ;
#9 =( LENGTH_UNIT ( ) NAMED_UNIT ( * ) SI_UNIT ( .MILLI., .METRE. ) );
#10 = PRODUCT_RELATED_PRODUCT_CATEGORY ( 'detail', '', ( #260 ) ) ;
#11 = AXIS2_PLACEMENT_3D ( 'NONE', #187, #229, #102 ) ;
#12 = DATE_AND_TIME ( #59, #118 ) ;
#13 = ORIENTED_EDGE ( 'NONE', *, *, #97, .F. ) ;
#14 = PRODUCT_DEFINITION ( 'UNKNOWN', '', #81, #52 ) ;
#15 = CIRCLE ( 'NONE', #79, 3.350000000000000500 ) ;
#16 = SHAPE_DEFINITION_REPRESENTATION ( #215, #76 ) ;
#17 = PERSON_AND_ORGANIZATION ( #212, #54 ) ;
#18 = ORIENTED_EDGE ( 'NONE', *, *, #199, .F. ) ;
#19 = DIRECTION ( 'NONE',  ( 0.7071067811865485700, 0.0000000000000000000, 0.7071067811865465700 ) ) ;
#20 = DIRECTION ( 'NONE',  ( -0.0000000000000000000, -0.0000000000000000000, -1.000000000000000000 ) ) ;
#21 = DIRECTION ( 'NONE',  ( 1.000000000000000000, 0.0000000000000000000, 0.0000000000000000000 ) ) ;
#22 = AXIS2_PLACEMENT_3D ( 'NONE', #231, #105, #251 ) ;
#23 = CARTESIAN_POINT ( 'NONE',  ( 0.0000000000000000000, 0.0000000000000000000, 1.000000000000000000 ) ) ;
#24 = CARTESIAN_POINT ( 'NONE',  ( 3.499999999999999600, 4.286263797015736100E-016, 0.8499999999999983100 ) ) ;
#25 = ORIENTED_EDGE ( 'NONE', *, *, #128, .T. ) ;
#26 = LINE ( 'NONE', #2, #227 ) ;
#27 = APPROVAL_ROLE ( '' ) ;
#28 = APPROVAL ( #108, 'UNSPECIFIED' ) ;
#29 = CARTESIAN_POINT ( 'NONE',  ( 3.350000000000000500, 0.0000000000000000000, -1.000000000000000000 ) ) ;
#30 = EDGE_LOOP ( 'NONE', ( #64, #115, #44, #264 ) ) ;
#31 = ORIENTED_EDGE ( 'NONE', *, *, #267, .F. ) ;
#32 = AXIS2_PLACEMENT_3D ( 'NONE', #234, #107, #255 ) ;
#33 = ADVANCED_FACE ( 'NONE', ( #142 ), #256, .T. ) ;
#34 = VECTOR ( 'NONE', #74, 1000.000000000000000 ) ;
#35 = CC_DESIGN_APPROVAL ( #28, ( #14 ) ) ;
#36 = LINE ( 'NONE', #185, #217 ) ;
#37 = DIRECTION ( 'NONE',  ( -0.0000000000000000000, -0.0000000000000000000, 1.000000000000000000 ) ) ;
#38 = ADVANCED_FACE ( 'NONE', ( #111 ), #259, .T. ) ;
#39 = DATE_AND_TIME ( #98, #160 ) ;
#40 = DIRECTION ( 'NONE',  ( 0.0000000000000000000, 0.0000000000000000000, 1.000000000000000000 ) ) ;
#41 = DIRECTION ( 'NONE',  ( 0.0000000000000000000, 0.0000000000000000000, 1.000000000000000000 ) ) ;
#42 = PERSON_AND_ORGANIZATION_ROLE ( 'design_supplier' ) ;
#43 = CARTESIAN_POINT ( 'NONE',  ( 0.0000000000000000000, 0.0000000000000000000, -0.8500000000000013100 ) ) ;
#44 = ORIENTED_EDGE ( 'NONE', *, *, #114, .F. ) ;
#45 = EDGE_CURVE ( 'NONE', #139, #213, #165, .T. ) ;
#46 = AXIS2_PLACEMENT_3D ( 'NONE', #172, #40, #191 ) ;
#47 = PERSON_AND_ORGANIZATION ( #212, #54 ) ;
#48 = VERTEX_POINT ( 'NONE', #219 ) ;
#49 = CC_DESIGN_PERSON_AND_ORGANIZATION_ASSIGNMENT ( #96, #131, ( #14 ) ) ;
#50 = PERSON_AND_ORGANIZATION ( #212, #54 ) ;
#51 = EDGE_CURVE ( 'NONE', #61, #213, #100, .T. ) ;
#52 = DESIGN_CONTEXT ( 'detailed design', #87, 'design' ) ;
#53 = LINE ( 'NONE', #69, #177 ) ;
#54 = ORGANIZATION ( 'UNSPECIFIED', 'UNSPECIFIED', '' ) ;
#55 = PLANE ( 'NONE',  #11 ) ;
#56 = CARTESIAN_POINT ( 'NONE',  ( 0.0000000000000000000, 0.0000000000000000000, 0.8499999999999983100 ) ) ;
#57 = AXIS2_PLACEMENT_3D ( 'NONE', #23, #274, #58 ) ;
#58 = DIRECTION ( 'NONE',  ( -1.000000000000000000, 0.0000000000000000000, 0.0000000000000000000 ) ) ;
#59 = CALENDAR_DATE ( 2018, 12, 3 ) ;
#60 = ADVANCED_FACE ( 'NONE', ( #140 ), #117, .T. ) ;
#61 = VERTEX_POINT ( 'NONE', #147 ) ;
#62 = CARTESIAN_POINT ( 'NONE',  ( 0.0000000000000000000, 0.0000000000000000000, 1.000000000000000000 ) ) ;
#63 = ORIENTED_EDGE ( 'NONE', *, *, #145, .F. ) ;
#64 = ORIENTED_EDGE ( 'NONE', *, *, #171, .F. ) ;
#65 = MECHANICAL_CONTEXT ( 'NONE', #173, 'mechanical' ) ;
#66 = DIRECTION ( 'NONE',  ( -0.0000000000000000000, -0.0000000000000000000, -1.000000000000000000 ) ) ;
#67 = PERSON_AND_ORGANIZATION_ROLE ( 'classification_officer' ) ;
#68 = CC_DESIGN_DATE_AND_TIME_ASSIGNMENT ( #73, #6, ( #14 ) ) ;
#69 = CARTESIAN_POINT ( 'NONE',  ( -3.499999999999999600, 0.0000000000000000000, 1.000000000000000000 ) ) ;
#70 = FACE_OUTER_BOUND ( 'NONE', #163, .T. ) ;
#71 = ORIENTED_EDGE ( 'NONE', *, *, #128, .F. ) ;
#72 = DIRECTION ( 'NONE',  ( -1.000000000000000000, 0.0000000000000000000, 0.0000000000000000000 ) ) ;
#73 = DATE_AND_TIME ( #126, #182 ) ;
#74 = DIRECTION ( 'NONE',  ( -0.7071067811865485700, 8.659560562354946400E-017, 0.7071067811865465700 ) ) ;
#75 = EDGE_CURVE ( 'NONE', #233, #61, #166, .T. ) ;
#76 = ADVANCED_BREP_SHAPE_REPRESENTATION ( 'TTN146940-E0W', ( #186, #258 ), #136 ) ;
#77 = ORIENTED_EDGE ( 'NONE', *, *, #114, .T. ) ;
#78 = FACE_OUTER_BOUND ( 'NONE', #246, .T. ) ;
#79 = AXIS2_PLACEMENT_3D ( 'NONE', #194, #66, #210 ) ;
#80 = ORIENTED_EDGE ( 'NONE', *, *, #84, .T. ) ;
#81 = PRODUCT_DEFINITION_FORMATION_WITH_SPECIFIED_SOURCE ( 'ANY', '', #260, .NOT_KNOWN. ) ;
#82 = DIRECTION ( 'NONE',  ( 1.000000000000000000, 0.0000000000000000000, 0.0000000000000000000 ) ) ;
#83 = EDGE_LOOP ( 'NONE', ( #18, #162, #134, #63 ) ) ;
#84 = EDGE_CURVE ( 'NONE', #183, #61, #36, .T. ) ;
#85 = ORIENTED_EDGE ( 'NONE', *, *, #75, .T. ) ;
#86 = FACE_OUTER_BOUND ( 'NONE', #130, .T. ) ;
#87 = APPLICATION_CONTEXT ( 'configuration controlled 3d designs of mechanical parts and assemblies' ) ;
#88 = ORIENTED_EDGE ( 'NONE', *, *, #145, .T. ) ;
#89 = DIRECTION ( 'NONE',  ( 1.000000000000000000, 0.0000000000000000000, 0.0000000000000000000 ) ) ;
#90 = CARTESIAN_POINT ( 'NONE',  ( 0.0000000000000000000, 0.0000000000000000000, 1.000000000000000000 ) ) ;
#91 = APPROVAL_STATUS ( 'not_yet_approved' ) ;
#92 = AXIS2_PLACEMENT_3D ( 'NONE', #62, #174, #236 ) ;
#93 = APPROVAL ( #155, 'UNSPECIFIED' ) ;
#94 = CONICAL_SURFACE ( 'NONE', #119, 3.499999999999999600, 0.7853981633974497200 ) ;
#95 = ORIENTED_EDGE ( 'NONE', *, *, #208, .T. ) ;
#96 = PERSON_AND_ORGANIZATION ( #212, #54 ) ;
#97 = EDGE_CURVE ( 'NONE', #233, #139, #149, .T. ) ;
#98 = CALENDAR_DATE ( 2018, 12, 3 ) ;
#99 = ORIENTED_EDGE ( 'NONE', *, *, #45, .T. ) ;
#100 = CIRCLE ( 'NONE', #223, 3.499999999999999600 ) ;
#101 = VECTOR ( 'NONE', #19, 1000.000000000000000 ) ;
#102 = DIRECTION ( 'NONE',  ( 1.000000000000000000, 0.0000000000000000000, -0.0000000000000000000 ) ) ;
#103 = AXIS2_PLACEMENT_3D ( 'NONE', #109, #133, #89 ) ;
#104 = APPROVAL_DATE_TIME ( #202, #28 ) ;
#105 = DIRECTION ( 'NONE',  ( 0.0000000000000000000, 0.0000000000000000000, -1.000000000000000000 ) ) ;
#106 = DATE_AND_TIME ( #164, #218 ) ;
#107 = DIRECTION ( 'NONE',  ( 0.0000000000000000000, 0.0000000000000000000, 1.000000000000000000 ) ) ;
#108 = APPROVAL_STATUS ( 'not_yet_approved' ) ;
#109 = CARTESIAN_POINT ( 'NONE',  ( 0.0000000000000000000, 0.0000000000000000000, -0.8500000000000013100 ) ) ;
#110 = CC_DESIGN_APPROVAL ( #93, ( #81 ) ) ;
#111 = FACE_OUTER_BOUND ( 'NONE', #181, .T. ) ;
#112 = PERSON_AND_ORGANIZATION ( #212, #54 ) ;
#113 = DIRECTION ( 'NONE',  ( 1.000000000000000000, 0.0000000000000000000, -0.0000000000000000000 ) ) ;
#114 = EDGE_CURVE ( 'NONE', #263, #183, #266, .T. ) ;
#115 = ORIENTED_EDGE ( 'NONE', *, *, #199, .T. ) ;
#116 = COORDINATED_UNIVERSAL_TIME_OFFSET ( 5, 0, .BEHIND. ) ;
#117 = CONICAL_SURFACE ( 'NONE', #203, 3.349999999999996500, 0.7853981633974526100 ) ;
#118 = LOCAL_TIME ( 11, 35, 17.00000000000000000, #179 ) ;
#119 = AXIS2_PLACEMENT_3D ( 'NONE', #43, #8, #176 ) ;
#120 = UNCERTAINTY_MEASURE_WITH_UNIT (LENGTH_MEASURE( 1.000000000000000100E-005 ), #9, 'distance_accuracy_value', 'NONE');
#121 = ORIENTED_EDGE ( 'NONE', *, *, #97, .T. ) ;
#122 = ADVANCED_FACE ( 'NONE', ( #78 ), #55, .F. ) ;
#123 = CC_DESIGN_PERSON_AND_ORGANIZATION_ASSIGNMENT ( #170, #175, ( #81 ) ) ;
#124 = CONICAL_SURFACE ( 'NONE', #92, 3.349999999999996500, 0.7853981633974526100 ) ;
#125 = CARTESIAN_POINT ( 'NONE',  ( -3.350000000000000500, 4.194415287079684900E-016, -1.000000000000000000 ) ) ;
#126 = CALENDAR_DATE ( 2018, 12, 3 ) ;
#127 =( NAMED_UNIT ( * ) SI_UNIT ( $, .STERADIAN. ) SOLID_ANGLE_UNIT ( ) );
#128 = EDGE_CURVE ( 'NONE', #213, #61, #132, .T. ) ;
#129 = DIRECTION ( 'NONE',  ( -0.7071067811865505700, 0.0000000000000000000, -0.7071067811865444600 ) ) ;
#130 = EDGE_LOOP ( 'NONE', ( #77, #80, #244, #31 ) ) ;
#131 = PERSON_AND_ORGANIZATION_ROLE ( 'creator' ) ;
#132 = CIRCLE ( 'NONE', #268, 3.499999999999999600 ) ;
#133 = DIRECTION ( 'NONE',  ( -0.0000000000000000000, -0.0000000000000000000, 1.000000000000000000 ) ) ;
#134 = ORIENTED_EDGE ( 'NONE', *, *, #161, .T. ) ;
#135 = CARTESIAN_POINT ( 'NONE',  ( 0.0000000000000000000, 0.0000000000000000000, 0.0000000000000000000 ) ) ;
#136 =( GEOMETRIC_REPRESENTATION_CONTEXT ( 3 ) GLOBAL_UNCERTAINTY_ASSIGNED_CONTEXT ( ( #120 ) ) GLOBAL_UNIT_ASSIGNED_CONTEXT ( ( #9, #159, #127 ) ) REPRESENTATION_CONTEXT ( 'NONE', 'WORKASPACE' ) );
#137 = DIRECTION ( 'NONE',  ( 0.0000000000000000000, 0.0000000000000000000, -1.000000000000000000 ) ) ;
#138 = ORIENTED_EDGE ( 'NONE', *, *, #84, .F. ) ;
#139 = VERTEX_POINT ( 'NONE', #125 ) ;
#140 = FACE_OUTER_BOUND ( 'NONE', #30, .T. ) ;
#141 = CC_DESIGN_PERSON_AND_ORGANIZATION_ASSIGNMENT ( #112, #42, ( #81 ) ) ;
#142 = FACE_OUTER_BOUND ( 'NONE', #273, .T. ) ;
#143 = ORIENTED_EDGE ( 'NONE', *, *, #208, .F. ) ;
#144 = CALENDAR_DATE ( 2018, 12, 3 ) ;
#145 = EDGE_CURVE ( 'NONE', #183, #263, #193, .T. ) ;
#146 = LOCAL_TIME ( 11, 35, 17.00000000000000000, #116 ) ;
#147 = CARTESIAN_POINT ( 'NONE',  ( 3.499999999999999600, 4.286263797015736100E-016, -0.8500000000000013100 ) ) ;
#148 = CARTESIAN_POINT ( 'NONE',  ( 0.0000000000000000000, 0.0000000000000000000, -1.000000000000000000 ) ) ;
#149 = CIRCLE ( 'NONE', #221, 3.350000000000000500 ) ;
#150 = ADVANCED_FACE ( 'NONE', ( #86 ), #243, .T. ) ;
#151 = CARTESIAN_POINT ( 'NONE',  ( 3.349999999999996500, 4.194415287079682500E-016, 1.000000000000000000 ) ) ;
#152 = APPLICATION_PROTOCOL_DEFINITION ( 'international standard', 'config_control_design', 1994, #173 ) ;
#153 = CARTESIAN_POINT ( 'NONE',  ( -3.499999999999999600, 0.0000000000000000000, -0.8500000000000013100 ) ) ;
#154 = CARTESIAN_POINT ( 'NONE',  ( -3.349999999999996500, 0.0000000000000000000, 1.000000000000000000 ) ) ;
#155 = APPROVAL_STATUS ( 'not_yet_approved' ) ;
#156 = DIRECTION ( 'NONE',  ( -0.0000000000000000000, -0.0000000000000000000, -1.000000000000000000 ) ) ;
#157 = DIRECTION ( 'NONE',  ( -0.0000000000000000000, -0.0000000000000000000, -1.000000000000000000 ) ) ;
#158 = EDGE_LOOP ( 'NONE', ( #143, #99, #242, #197 ) ) ;
#159 =( NAMED_UNIT ( * ) PLANE_ANGLE_UNIT ( ) SI_UNIT ( $, .RADIAN. ) );
#160 = LOCAL_TIME ( 11, 35, 17.00000000000000000, #206 ) ;
#161 = EDGE_CURVE ( 'NONE', #48, #263, #205, .T. ) ;
#162 = ORIENTED_EDGE ( 'NONE', *, *, #184, .F. ) ;
#163 = EDGE_LOOP ( 'NONE', ( #241, #13, #85, #71 ) ) ;
#164 = CALENDAR_DATE ( 2018, 12, 3 ) ;
#165 = LINE ( 'NONE', #261, #34 ) ;
#166 = LINE ( 'NONE', #167, #101 ) ;
#167 = CARTESIAN_POINT ( 'NONE',  ( 3.499999999999999600, 0.0000000000000000000, -0.8500000000000013100 ) ) ;
#168 = DIRECTION ( 'NONE',  ( 1.000000000000000000, 0.0000000000000000000, 0.0000000000000000000 ) ) ;
#169 = CARTESIAN_POINT ( 'NONE',  ( 0.0000000000000000000, 0.0000000000000000000, -0.8500000000000013100 ) ) ;
#170 = PERSON_AND_ORGANIZATION ( #212, #54 ) ;
#171 = EDGE_CURVE ( 'NONE', #189, #48, #198, .T. ) ;
#172 = CARTESIAN_POINT ( 'NONE',  ( 0.0000000000000000000, 0.0000000000000000000, 1.000000000000000000 ) ) ;
#173 = APPLICATION_CONTEXT ( 'configuration controlled 3d designs of mechanical parts and assemblies' ) ;
#174 = DIRECTION ( 'NONE',  ( 0.0000000000000000000, 0.0000000000000000000, -1.000000000000000000 ) ) ;
#175 = PERSON_AND_ORGANIZATION_ROLE ( 'creator' ) ;
#176 = DIRECTION ( 'NONE',  ( 1.000000000000000000, 0.0000000000000000000, 0.0000000000000000000 ) ) ;
#177 = VECTOR ( 'NONE', #156, 1000.000000000000000 ) ;
#178 = DIRECTION ( 'NONE',  ( -1.000000000000000000, 0.0000000000000000000, 0.0000000000000000000 ) ) ;
#179 = COORDINATED_UNIVERSAL_TIME_OFFSET ( 5, 0, .BEHIND. ) ;
#180 = ORIENTED_EDGE ( 'NONE', *, *, #267, .T. ) ;
#181 = EDGE_LOOP ( 'NONE', ( #5, #225 ) ) ;
#182 = LOCAL_TIME ( 11, 35, 17.00000000000000000, #240 ) ;
#183 = VERTEX_POINT ( 'NONE', #24 ) ;
#184 = EDGE_CURVE ( 'NONE', #48, #189, #252, .T. ) ;
#185 = CARTESIAN_POINT ( 'NONE',  ( 3.499999999999999600, 4.286263797015736100E-016, 1.000000000000000000 ) ) ;
#186 = MANIFOLD_SOLID_BREP ( 'TTN146948-1-solid1', #249 ) ;
#187 = CARTESIAN_POINT ( 'NONE',  ( 0.0000000000000000000, 0.0000000000000000000, -1.000000000000000000 ) ) ;
#188 = DIRECTION ( 'NONE',  ( 1.000000000000000000, 0.0000000000000000000, 0.0000000000000000000 ) ) ;
#189 = VERTEX_POINT ( 'NONE', #151 ) ;
#190 = CARTESIAN_POINT ( 'NONE',  ( 0.0000000000000000000, 0.0000000000000000000, -0.8500000000000013100 ) ) ;
#191 = DIRECTION ( 'NONE',  ( 1.000000000000000000, 0.0000000000000000000, 0.0000000000000000000 ) ) ;
#192 = DIRECTION ( 'NONE',  ( 1.000000000000000000, 0.0000000000000000000, 0.0000000000000000000 ) ) ;
#193 = CIRCLE ( 'NONE', #22, 3.499999999999999600 ) ;
#194 = CARTESIAN_POINT ( 'NONE',  ( 0.0000000000000000000, 0.0000000000000000000, -1.000000000000000000 ) ) ;
#195 = SECURITY_CLASSIFICATION_LEVEL ( 'unclassified' ) ;
#196 = SECURITY_CLASSIFICATION ( '', '', #195 ) ;
#197 = ORIENTED_EDGE ( 'NONE', *, *, #75, .F. ) ;
#198 = CIRCLE ( 'NONE', #46, 3.349999999999996500 ) ;
#199 = EDGE_CURVE ( 'NONE', #189, #183, #26, .T. ) ;
#200 = VECTOR ( 'NONE', #129, 1000.000000000000000 ) ;
#201 = CC_DESIGN_PERSON_AND_ORGANIZATION_ASSIGNMENT ( #50, #67, ( #196 ) ) ;
#202 = DATE_AND_TIME ( #144, #146 ) ;
#203 = AXIS2_PLACEMENT_3D ( 'NONE', #207, #137, #178 ) ;
#204 = DIRECTION ( 'NONE',  ( 0.0000000000000000000, 0.0000000000000000000, -1.000000000000000000 ) ) ;
#205 = LINE ( 'NONE', #154, #200 ) ;
#206 = COORDINATED_UNIVERSAL_TIME_OFFSET ( 5, 0, .BEHIND. ) ;
#207 = CARTESIAN_POINT ( 'NONE',  ( 0.0000000000000000000, 0.0000000000000000000, 1.000000000000000000 ) ) ;
#208 = EDGE_CURVE ( 'NONE', #139, #233, #15, .T. ) ;
#209 = PERSON_AND_ORGANIZATION_ROLE ( 'design_owner' ) ;
#210 = DIRECTION ( 'NONE',  ( 1.000000000000000000, 0.0000000000000000000, 0.0000000000000000000 ) ) ;
#211 = DIRECTION ( 'NONE',  ( 0.0000000000000000000, 0.0000000000000000000, 1.000000000000000000 ) ) ;
#212 = PERSON ( 'UNSPECIFIED', 'UNSPECIFIED', 'UNSPECIFIED', ('UNSPECIFIED'), ('UNSPECIFIED'), ('UNSPECIFIED') ) ;
#213 = VERTEX_POINT ( 'NONE', #153 ) ;
#214 = DATE_TIME_ROLE ( 'classification_date' ) ;
#215 = PRODUCT_DEFINITION_SHAPE ( 'NONE', 'NONE',  #14 ) ;
#216 = CARTESIAN_POINT ( 'NONE',  ( -3.499999999999999600, 0.0000000000000000000, 0.8499999999999983100 ) ) ;
#217 = VECTOR ( 'NONE', #228, 1000.000000000000000 ) ;
#218 = LOCAL_TIME ( 11, 35, 17.00000000000000000, #1 ) ;
#219 = CARTESIAN_POINT ( 'NONE',  ( -3.349999999999996500, 0.0000000000000000000, 1.000000000000000000 ) ) ;
#220 = CC_DESIGN_DATE_AND_TIME_ASSIGNMENT ( #106, #214, ( #196 ) ) ;
#221 = AXIS2_PLACEMENT_3D ( 'NONE', #148, #20, #168 ) ;
#222 = APPROVAL_DATE_TIME ( #12, #93 ) ;
#223 = AXIS2_PLACEMENT_3D ( 'NONE', #190, #275, #21 ) ;
#224 = ADVANCED_FACE ( 'NONE', ( #7 ), #124, .T. ) ;
#225 = ORIENTED_EDGE ( 'NONE', *, *, #171, .T. ) ;
#226 = FACE_OUTER_BOUND ( 'NONE', #158, .T. ) ;
#227 = VECTOR ( 'NONE', #3, 1000.000000000000000 ) ;
#228 = DIRECTION ( 'NONE',  ( -0.0000000000000000000, -0.0000000000000000000, -1.000000000000000000 ) ) ;
#229 = DIRECTION ( 'NONE',  ( 0.0000000000000000000, 0.0000000000000000000, 1.000000000000000000 ) ) ;
#230 = APPROVAL_PERSON_ORGANIZATION ( #17, #93, #27 ) ;
#231 = CARTESIAN_POINT ( 'NONE',  ( 0.0000000000000000000, 0.0000000000000000000, 0.8499999999999983100 ) ) ;
#232 = ADVANCED_FACE ( 'NONE', ( #226 ), #245, .T. ) ;
#233 = VERTEX_POINT ( 'NONE', #29 ) ;
#234 = CARTESIAN_POINT ( 'NONE',  ( 0.0000000000000000000, 0.0000000000000000000, 1.000000000000000000 ) ) ;
#235 = APPLICATION_PROTOCOL_DEFINITION ( 'international standard', 'config_control_design', 1994, #87 ) ;
#236 = DIRECTION ( 'NONE',  ( -1.000000000000000000, 0.0000000000000000000, 0.0000000000000000000 ) ) ;
#237 = APPROVAL_ROLE ( '' ) ;
#238 = APPROVAL ( #91, 'UNSPECIFIED' ) ;
#239 = AXIS2_PLACEMENT_3D ( 'NONE', #56, #204, #82 ) ;
#240 = COORDINATED_UNIVERSAL_TIME_OFFSET ( 5, 0, .BEHIND. ) ;
#241 = ORIENTED_EDGE ( 'NONE', *, *, #45, .F. ) ;
#242 = ORIENTED_EDGE ( 'NONE', *, *, #51, .F. ) ;
#243 = CYLINDRICAL_SURFACE ( 'NONE', #57, 3.499999999999999600 ) ;
#244 = ORIENTED_EDGE ( 'NONE', *, *, #51, .T. ) ;
#245 = CONICAL_SURFACE ( 'NONE', #103, 3.499999999999999600, 0.7853981633974497200 ) ;
#246 = EDGE_LOOP ( 'NONE', ( #121, #95 ) ) ;
#247 = CC_DESIGN_APPROVAL ( #238, ( #196 ) ) ;
#248 = PERSON_AND_ORGANIZATION ( #212, #54 ) ;
#249 = CLOSED_SHELL ( 'NONE', ( #60, #232, #150, #33, #38, #122, #250, #224 ) ) ;
#250 = ADVANCED_FACE ( 'NONE', ( #70 ), #94, .T. ) ;
#251 = DIRECTION ( 'NONE',  ( 1.000000000000000000, 0.0000000000000000000, 0.0000000000000000000 ) ) ;
#252 = CIRCLE ( 'NONE', #32, 3.349999999999996500 ) ;
#253 = PERSON_AND_ORGANIZATION ( #212, #54 ) ;
#254 = AXIS2_PLACEMENT_3D ( 'NONE', #4, #157, #72 ) ;
#255 = DIRECTION ( 'NONE',  ( 1.000000000000000000, 0.0000000000000000000, 0.0000000000000000000 ) ) ;
#256 = CYLINDRICAL_SURFACE ( 'NONE', #254, 3.499999999999999600 ) ;
#257 = APPROVAL_ROLE ( '' ) ;
#258 = AXIS2_PLACEMENT_3D ( 'NONE', #135, #41, #192 ) ;
#259 = PLANE ( 'NONE',  #271 ) ;
#260 = PRODUCT ( 'TTN146940-E0W', 'TTN146940-E0W', '', ( #65 ) ) ;
#261 = CARTESIAN_POINT ( 'NONE',  ( -3.499999999999999600, 4.286263797015736100E-016, -0.8500000000000013100 ) ) ;
#262 = APPROVAL_DATE_TIME ( #39, #238 ) ;
#263 = VERTEX_POINT ( 'NONE', #216 ) ;
#264 = ORIENTED_EDGE ( 'NONE', *, *, #161, .F. ) ;
#265 = CC_DESIGN_SECURITY_CLASSIFICATION ( #196, ( #81 ) ) ;
#266 = CIRCLE ( 'NONE', #239, 3.499999999999999600 ) ;
#267 = EDGE_CURVE ( 'NONE', #263, #213, #53, .T. ) ;
#268 = AXIS2_PLACEMENT_3D ( 'NONE', #169, #37, #188 ) ;
#269 = APPROVAL_PERSON_ORGANIZATION ( #253, #28, #257 ) ;
#270 = APPROVAL_PERSON_ORGANIZATION ( #47, #238, #237 ) ;
#271 = AXIS2_PLACEMENT_3D ( 'NONE', #90, #211, #113 ) ;
#272 = CC_DESIGN_PERSON_AND_ORGANIZATION_ASSIGNMENT ( #248, #209, ( #260 ) ) ;
#273 = EDGE_LOOP ( 'NONE', ( #138, #88, #180, #25 ) ) ;
#274 = DIRECTION ( 'NONE',  ( -0.0000000000000000000, -0.0000000000000000000, -1.000000000000000000 ) ) ;
#275 = DIRECTION ( 'NONE',  ( -0.0000000000000000000, -0.0000000000000000000, 1.000000000000000000 ) ) ;
ENDSEC;
END-ISO-10303-21;
