ISO-10303-21;
HEADER;
FILE_DESCRIPTION (( 'STEP AP203' ),
    '1' );
FILE_NAME ('Web Model 15425_15437.step',
    '2020-07-31T18:47:27',
    ( '' ),
    ( '' ),
    'SwSTEP 2.0',
    'SolidWorks 2018',
    '' );
FILE_SCHEMA (( 'CONFIG_CONTROL_DESIGN' ));
ENDSEC;

DATA;
#1 = CARTESIAN_POINT ( 'NONE',  ( -12.69999999999999929, 0.0000000000000000000, 2.000000000000000000 ) ) ;
#2 = CC_DESIGN_PERSON_AND_ORGANIZATION_ASSIGNMENT ( #85, #150, ( #121 ) ) ;
#3 = APPROVAL_PERSON_ORGANIZATION ( #39, #126, #103 ) ;
#4 = CARTESIAN_POINT ( 'NONE',  ( 0.0000000000000000000, 0.0000000000000000000, -2.000000000000000000 ) ) ;
#5 = ADVANCED_FACE ( 'NONE', ( #107 ), #44, .T. ) ;
#6 = APPROVAL_ROLE ( '' ) ;
#7 = DATE_AND_TIME ( #157, #63 ) ;
#8 = APPROVAL ( #114, 'UNSPECIFIED' ) ;
#9 = VECTOR ( 'NONE', #77, 1000.000000000000000 ) ;
#10 = DATE_AND_TIME ( #43, #161 ) ;
#11 = AXIS2_PLACEMENT_3D ( 'NONE', #87, #109, #134 ) ;
#12 = ORIENTED_EDGE ( 'NONE', *, *, #155, .T. ) ;
#13 = DIRECTION ( 'NONE',  ( 1.000000000000000000, 0.0000000000000000000, 0.0000000000000000000 ) ) ;
#14 = PRODUCT_RELATED_PRODUCT_CATEGORY ( 'detail', '', ( #55 ) ) ;
#15 = CARTESIAN_POINT ( 'NONE',  ( 0.0000000000000000000, 0.0000000000000000000, 2.000000000000000000 ) ) ;
#16 = CARTESIAN_POINT ( 'NONE',  ( 0.0000000000000000000, 0.0000000000000000000, 2.000000000000000000 ) ) ;
#17 = ORIENTED_EDGE ( 'NONE', *, *, #155, .F. ) ;
#18 = VECTOR ( 'NONE', #146, 1000.000000000000000 ) ;
#19 = CARTESIAN_POINT ( 'NONE',  ( 12.69999999999999929, 1.555301434917138433E-15, 2.000000000000000000 ) ) ;
#20 = MECHANICAL_CONTEXT ( 'NONE', #139, 'mechanical' ) ;
#21 = FACE_OUTER_BOUND ( 'NONE', #154, .T. ) ;
#22 = FACE_OUTER_BOUND ( 'NONE', #89, .T. ) ;
#23 = AXIS2_PLACEMENT_3D ( 'NONE', #102, #148, #167 ) ;
#24 = LOCAL_TIME ( 14, 47, 27.00000000000000000, #133 ) ;
#25 = ORIENTED_EDGE ( 'NONE', *, *, #162, .F. ) ;
#26 = DIRECTION ( 'NONE',  ( 0.0000000000000000000, 0.0000000000000000000, 1.000000000000000000 ) ) ;
#27 = DIRECTION ( 'NONE',  ( 0.0000000000000000000, 0.0000000000000000000, 1.000000000000000000 ) ) ;
#28 = CARTESIAN_POINT ( 'NONE',  ( 0.0000000000000000000, 0.0000000000000000000, 2.000000000000000000 ) ) ;
#29 = AXIS2_PLACEMENT_3D ( 'NONE', #91, #27, #125 ) ;
#30 = DIRECTION ( 'NONE',  ( 0.0000000000000000000, 0.0000000000000000000, 1.000000000000000000 ) ) ;
#31 = FACE_OUTER_BOUND ( 'NONE', #72, .T. ) ;
#32 = ADVANCED_FACE ( 'NONE', ( #21 ), #41, .F. ) ;
#33 = APPROVAL_STATUS ( 'not_yet_approved' ) ;
#34 = PERSON_AND_ORGANIZATION_ROLE ( 'creator' ) ;
#35 = ADVANCED_FACE ( 'NONE', ( #22 ), #83, .T. ) ;
#36 = APPROVAL_STATUS ( 'not_yet_approved' ) ;
#37 = CALENDAR_DATE ( 2020, 31, 7 ) ;
#38 = APPROVAL_DATE_TIME ( #97, #8 ) ;
#39 = PERSON_AND_ORGANIZATION ( #99, #142 ) ;
#40 = ORIENTED_EDGE ( 'NONE', *, *, #118, .T. ) ;
#41 = PLANE ( 'NONE',  #51 ) ;
#42 = CARTESIAN_POINT ( 'NONE',  ( 0.0000000000000000000, 0.0000000000000000000, -2.000000000000000000 ) ) ;
#43 = CALENDAR_DATE ( 2020, 31, 7 ) ;
#44 = CYLINDRICAL_SURFACE ( 'NONE', #158, 12.69999999999999929 ) ;
#45 = DIRECTION ( 'NONE',  ( 0.0000000000000000000, 0.0000000000000000000, 1.000000000000000000 ) ) ;
#46 = DATE_TIME_ROLE ( 'classification_date' ) ;
#47 = AXIS2_PLACEMENT_3D ( 'NONE', #128, #64, #50 ) ;
#48 = PERSON_AND_ORGANIZATION_ROLE ( 'design_owner' ) ;
#49 = ORIENTED_EDGE ( 'NONE', *, *, #169, .T. ) ;
#50 = DIRECTION ( 'NONE',  ( 1.000000000000000000, 0.0000000000000000000, 0.0000000000000000000 ) ) ;
#51 = AXIS2_PLACEMENT_3D ( 'NONE', #4, #30, #127 ) ;
#52 = CALENDAR_DATE ( 2020, 31, 7 ) ;
#53 = ORIENTED_EDGE ( 'NONE', *, *, #118, .F. ) ;
#54 = CC_DESIGN_PERSON_AND_ORGANIZATION_ASSIGNMENT ( #106, #149, ( #113 ) ) ;
#55 = PRODUCT ( 'Web Model 15425_15437', 'Web Model 15425_15437', '', ( #20 ) ) ;
#56 = DATE_AND_TIME ( #52, #24 ) ;
#57 = UNCERTAINTY_MEASURE_WITH_UNIT (LENGTH_MEASURE( 1.000000000000000082E-05 ), #75, 'distance_accuracy_value', 'NONE');
#58 = CARTESIAN_POINT ( 'NONE',  ( 12.69999999999999929, 1.555301434917138433E-15, -2.000000000000000000 ) ) ;
#59 = ORIENTED_EDGE ( 'NONE', *, *, #100, .F. ) ;
#60 = CC_DESIGN_APPROVAL ( #124, ( #121 ) ) ;
#61 = PERSON_AND_ORGANIZATION ( #99, #142 ) ;
#62 = APPROVAL_PERSON_ORGANIZATION ( #61, #124, #6 ) ;
#63 = LOCAL_TIME ( 14, 47, 27.00000000000000000, #165 ) ;
#64 = DIRECTION ( 'NONE',  ( 0.0000000000000000000, 0.0000000000000000000, 1.000000000000000000 ) ) ;
#65 = CARTESIAN_POINT ( 'NONE',  ( -12.69999999999999929, 0.0000000000000000000, -2.000000000000000000 ) ) ;
#66 = SECURITY_CLASSIFICATION ( '', '', #115 ) ;
#67 =( NAMED_UNIT ( * ) SI_UNIT ( $, .STERADIAN. ) SOLID_ANGLE_UNIT ( ) );
#68 = MANIFOLD_SOLID_BREP ( 'Boss-Extrude1', #80 ) ;
#69 = DATE_TIME_ROLE ( 'creation_date' ) ;
#70 = COORDINATED_UNIVERSAL_TIME_OFFSET ( 5, 0, .BEHIND. ) ;
#71 = APPROVAL_DATE_TIME ( #173, #126 ) ;
#72 = EDGE_LOOP ( 'NONE', ( #168, #49 ) ) ;
#73 = ADVANCED_FACE ( 'NONE', ( #31 ), #98, .T. ) ;
#74 = AXIS2_PLACEMENT_3D ( 'NONE', #15, #26, #135 ) ;
#75 =( LENGTH_UNIT ( ) NAMED_UNIT ( * ) SI_UNIT ( .MILLI., .METRE. ) );
#76 = ORIENTED_EDGE ( 'NONE', *, *, #108, .T. ) ;
#77 = DIRECTION ( 'NONE',  ( -0.0000000000000000000, -0.0000000000000000000, -1.000000000000000000 ) ) ;
#78 = PERSON_AND_ORGANIZATION ( #99, #142 ) ;
#79 = CC_DESIGN_SECURITY_CLASSIFICATION ( #66, ( #121 ) ) ;
#80 = CLOSED_SHELL ( 'NONE', ( #5, #35, #73, #32 ) ) ;
#81 = CC_DESIGN_PERSON_AND_ORGANIZATION_ASSIGNMENT ( #116, #34, ( #121 ) ) ;
#82 = PERSON_AND_ORGANIZATION ( #99, #142 ) ;
#83 = CYLINDRICAL_SURFACE ( 'NONE', #96, 12.69999999999999929 ) ;
#84 = ADVANCED_BREP_SHAPE_REPRESENTATION ( 'Web Model 15425_15437', ( #68, #47 ), #163 ) ;
#85 = PERSON_AND_ORGANIZATION ( #99, #142 ) ;
#86 = CC_DESIGN_PERSON_AND_ORGANIZATION_ASSIGNMENT ( #82, #48, ( #55 ) ) ;
#87 = CARTESIAN_POINT ( 'NONE',  ( 0.0000000000000000000, 0.0000000000000000000, 2.000000000000000000 ) ) ;
#88 = ORIENTED_EDGE ( 'NONE', *, *, #169, .F. ) ;
#89 = EDGE_LOOP ( 'NONE', ( #25, #59, #76, #40 ) ) ;
#90 = CIRCLE ( 'NONE', #11, 12.69999999999999929 ) ;
#91 = CARTESIAN_POINT ( 'NONE',  ( 0.0000000000000000000, 0.0000000000000000000, -2.000000000000000000 ) ) ;
#92 = VERTEX_POINT ( 'NONE', #58 ) ;
#93 = COORDINATED_UNIVERSAL_TIME_OFFSET ( 5, 0, .BEHIND. ) ;
#94 = LINE ( 'NONE', #1, #18 ) ;
#95 = EDGE_LOOP ( 'NONE', ( #88, #130, #12, #147 ) ) ;
#96 = AXIS2_PLACEMENT_3D ( 'NONE', #28, #123, #110 ) ;
#97 = DATE_AND_TIME ( #136, #172 ) ;
#98 = PLANE ( 'NONE',  #74 ) ;
#99 = PERSON ( 'UNSPECIFIED', 'UNSPECIFIED', 'UNSPECIFIED', ('UNSPECIFIED'), ('UNSPECIFIED'), ('UNSPECIFIED') ) ;
#100 = EDGE_CURVE ( 'NONE', #101, #159, #166, .T. ) ;
#101 = VERTEX_POINT ( 'NONE', #175 ) ;
#102 = CARTESIAN_POINT ( 'NONE',  ( 0.0000000000000000000, 0.0000000000000000000, 2.000000000000000000 ) ) ;
#103 = APPROVAL_ROLE ( '' ) ;
#104 = CC_DESIGN_DATE_AND_TIME_ASSIGNMENT ( #7, #69, ( #113 ) ) ;
#105 = APPLICATION_CONTEXT ( 'configuration controlled 3d designs of mechanical parts and assemblies' ) ;
#106 = PERSON_AND_ORGANIZATION ( #99, #142 ) ;
#107 = FACE_OUTER_BOUND ( 'NONE', #95, .T. ) ;
#108 = EDGE_CURVE ( 'NONE', #101, #145, #94, .T. ) ;
#109 = DIRECTION ( 'NONE',  ( 0.0000000000000000000, 0.0000000000000000000, 1.000000000000000000 ) ) ;
#110 = DIRECTION ( 'NONE',  ( -1.000000000000000000, 0.0000000000000000000, 0.0000000000000000000 ) ) ;
#111 = AXIS2_PLACEMENT_3D ( 'NONE', #42, #45, #13 ) ;
#112 = CARTESIAN_POINT ( 'NONE',  ( 12.69999999999999929, 1.555301434917138433E-15, 2.000000000000000000 ) ) ;
#113 = PRODUCT_DEFINITION ( 'UNKNOWN', '', #121, #119 ) ;
#114 = APPROVAL_STATUS ( 'not_yet_approved' ) ;
#115 = SECURITY_CLASSIFICATION_LEVEL ( 'unclassified' ) ;
#116 = PERSON_AND_ORGANIZATION ( #99, #142 ) ;
#117 = APPLICATION_PROTOCOL_DEFINITION ( 'international standard', 'config_control_design', 1994, #105 ) ;
#118 = EDGE_CURVE ( 'NONE', #145, #92, #122, .T. ) ;
#119 = DESIGN_CONTEXT ( 'detailed design', #105, 'design' ) ;
#120 = LINE ( 'NONE', #112, #9 ) ;
#121 = PRODUCT_DEFINITION_FORMATION_WITH_SPECIFIED_SOURCE ( 'ANY', '', #55, .NOT_KNOWN. ) ;
#122 = CIRCLE ( 'NONE', #29, 12.69999999999999929 ) ;
#123 = DIRECTION ( 'NONE',  ( -0.0000000000000000000, -0.0000000000000000000, -1.000000000000000000 ) ) ;
#124 = APPROVAL ( #33, 'UNSPECIFIED' ) ;
#125 = DIRECTION ( 'NONE',  ( 1.000000000000000000, 0.0000000000000000000, 0.0000000000000000000 ) ) ;
#126 = APPROVAL ( #36, 'UNSPECIFIED' ) ;
#127 = DIRECTION ( 'NONE',  ( 1.000000000000000000, 0.0000000000000000000, -0.0000000000000000000 ) ) ;
#128 = CARTESIAN_POINT ( 'NONE',  ( 0.0000000000000000000, 0.0000000000000000000, 0.0000000000000000000 ) ) ;
#129 = APPROVAL_PERSON_ORGANIZATION ( #164, #8, #151 ) ;
#130 = ORIENTED_EDGE ( 'NONE', *, *, #162, .T. ) ;
#131 = APPLICATION_PROTOCOL_DEFINITION ( 'international standard', 'config_control_design', 1994, #139 ) ;
#132 = PERSON_AND_ORGANIZATION_ROLE ( 'classification_officer' ) ;
#133 = COORDINATED_UNIVERSAL_TIME_OFFSET ( 5, 0, .BEHIND. ) ;
#134 = DIRECTION ( 'NONE',  ( 1.000000000000000000, 0.0000000000000000000, 0.0000000000000000000 ) ) ;
#135 = DIRECTION ( 'NONE',  ( 1.000000000000000000, 0.0000000000000000000, -0.0000000000000000000 ) ) ;
#136 = CALENDAR_DATE ( 2020, 31, 7 ) ;
#137 = LOCAL_TIME ( 14, 47, 27.00000000000000000, #141 ) ;
#138 = DIRECTION ( 'NONE',  ( -1.000000000000000000, 0.0000000000000000000, 0.0000000000000000000 ) ) ;
#139 = APPLICATION_CONTEXT ( 'configuration controlled 3d designs of mechanical parts and assemblies' ) ;
#140 = SHAPE_DEFINITION_REPRESENTATION ( #144, #84 ) ;
#141 = COORDINATED_UNIVERSAL_TIME_OFFSET ( 5, 0, .BEHIND. ) ;
#142 = ORGANIZATION ( 'UNSPECIFIED', 'UNSPECIFIED', '' ) ;
#143 = CC_DESIGN_APPROVAL ( #126, ( #113 ) ) ;
#144 = PRODUCT_DEFINITION_SHAPE ( 'NONE', 'NONE',  #113 ) ;
#145 = VERTEX_POINT ( 'NONE', #65 ) ;
#146 = DIRECTION ( 'NONE',  ( -0.0000000000000000000, -0.0000000000000000000, -1.000000000000000000 ) ) ;
#147 = ORIENTED_EDGE ( 'NONE', *, *, #108, .F. ) ;
#148 = DIRECTION ( 'NONE',  ( 0.0000000000000000000, 0.0000000000000000000, 1.000000000000000000 ) ) ;
#149 = PERSON_AND_ORGANIZATION_ROLE ( 'creator' ) ;
#150 = PERSON_AND_ORGANIZATION_ROLE ( 'design_supplier' ) ;
#151 = APPROVAL_ROLE ( '' ) ;
#152 = CC_DESIGN_PERSON_AND_ORGANIZATION_ASSIGNMENT ( #78, #132, ( #66 ) ) ;
#153 = CIRCLE ( 'NONE', #111, 12.69999999999999929 ) ;
#154 = EDGE_LOOP ( 'NONE', ( #53, #17 ) ) ;
#155 = EDGE_CURVE ( 'NONE', #92, #145, #153, .T. ) ;
#156 = APPROVAL_DATE_TIME ( #56, #124 ) ;
#157 = CALENDAR_DATE ( 2020, 31, 7 ) ;
#158 = AXIS2_PLACEMENT_3D ( 'NONE', #16, #174, #138 ) ;
#159 = VERTEX_POINT ( 'NONE', #19 ) ;
#160 =( NAMED_UNIT ( * ) PLANE_ANGLE_UNIT ( ) SI_UNIT ( $, .RADIAN. ) );
#161 = LOCAL_TIME ( 14, 47, 27.00000000000000000, #93 ) ;
#162 = EDGE_CURVE ( 'NONE', #159, #92, #120, .T. ) ;
#163 =( GEOMETRIC_REPRESENTATION_CONTEXT ( 3 ) GLOBAL_UNCERTAINTY_ASSIGNED_CONTEXT ( ( #57 ) ) GLOBAL_UNIT_ASSIGNED_CONTEXT ( ( #75, #160, #67 ) ) REPRESENTATION_CONTEXT ( 'NONE', 'WORKASPACE' ) );
#164 = PERSON_AND_ORGANIZATION ( #99, #142 ) ;
#165 = COORDINATED_UNIVERSAL_TIME_OFFSET ( 5, 0, .BEHIND. ) ;
#166 = CIRCLE ( 'NONE', #23, 12.69999999999999929 ) ;
#167 = DIRECTION ( 'NONE',  ( 1.000000000000000000, 0.0000000000000000000, 0.0000000000000000000 ) ) ;
#168 = ORIENTED_EDGE ( 'NONE', *, *, #100, .T. ) ;
#169 = EDGE_CURVE ( 'NONE', #159, #101, #90, .T. ) ;
#170 = CC_DESIGN_APPROVAL ( #8, ( #66 ) ) ;
#171 = CC_DESIGN_DATE_AND_TIME_ASSIGNMENT ( #10, #46, ( #66 ) ) ;
#172 = LOCAL_TIME ( 14, 47, 27.00000000000000000, #70 ) ;
#173 = DATE_AND_TIME ( #37, #137 ) ;
#174 = DIRECTION ( 'NONE',  ( -0.0000000000000000000, -0.0000000000000000000, -1.000000000000000000 ) ) ;
#175 = CARTESIAN_POINT ( 'NONE',  ( -12.69999999999999929, 0.0000000000000000000, 2.000000000000000000 ) ) ;
ENDSEC;
END-ISO-10303-21;
