ISO-10303-21;
HEADER;
FILE_DESCRIPTION (( 'STEP AP214' ),
    '1' );
FILE_NAME ('4520-E0W.STEP',
    '2009-12-21T17:07:30',
    ( ' ' ),
    ( ' ' ),
    'SwSTEP 2.0',
    'SolidWorks 2009',
    '' );
FILE_SCHEMA (( 'AUTOMOTIVE_DESIGN' ));
ENDSEC;

DATA;
#1 = MECHANICAL_DESIGN_GEOMETRIC_PRESENTATION_REPRESENTATION (  '', ( #99 ), #230 ) ;
#2 = DIRECTION ( 'NONE',  ( 1.000000000000000000, 0.0000000000000000000, 0.0000000000000000000 ) ) ;
#3 = DIRECTION ( 'NONE',  ( -0.0000000000000000000, -0.0000000000000000000, 1.000000000000000000 ) ) ;
#4 = CARTESIAN_POINT ( 'NONE',  ( 0.0000000000000000000, 0.0000000000000000000, -2.285000000000000600 ) ) ;
#5 = AXIS2_PLACEMENT_3D ( 'NONE', #4, #3, #2 ) ;
#6 = CIRCLE ( 'NONE', #5, 25.39999999999999900 ) ;
#7 = CARTESIAN_POINT ( 'NONE',  ( 0.0000000000000000000, 0.0000000000000000000, 0.7133109095837425500 ) ) ;
#8 = EDGE_CURVE ( 'NONE', #41, #40, #6, .T. ) ;
#9 = ORIENTED_EDGE ( 'NONE', *, *, #81, .T. ) ;
#10 = ORIENTED_EDGE ( 'NONE', *, *, #23, .F. ) ;
#11 = EDGE_LOOP ( 'NONE', ( #14, #15, #20, #21 ) ) ;
#12 = EDGE_LOOP ( 'NONE', ( #13, #31, #9, #32, #33 ) ) ;
#13 = ORIENTED_EDGE ( 'NONE', *, *, #43, .F. ) ;
#14 = ORIENTED_EDGE ( 'NONE', *, *, #24, .F. ) ;
#15 = ORIENTED_EDGE ( 'NONE', *, *, #16, .T. ) ;
#16 = EDGE_CURVE ( 'NONE', #29, #79, #129, .T. ) ;
#17 = VERTEX_POINT ( 'NONE', #125 ) ;
#18 = ORIENTED_EDGE ( 'NONE', *, *, #26, .T. ) ;
#19 = ORIENTED_EDGE ( 'NONE', *, *, #46, .T. ) ;
#20 = ORIENTED_EDGE ( 'NONE', *, *, #78, .T. ) ;
#21 = ORIENTED_EDGE ( 'NONE', *, *, #23, .T. ) ;
#22 = ORIENTED_EDGE ( 'NONE', *, *, #24, .T. ) ;
#23 = EDGE_CURVE ( 'NONE', #47, #17, #123, .T. ) ;
#24 = EDGE_CURVE ( 'NONE', #29, #17, #117, .T. ) ;
#25 = CLOSED_SHELL ( 'NONE', ( #36, #82, #30, #75, #34 ) ) ;
#26 = EDGE_CURVE ( 'NONE', #44, #29, #65, .T. ) ;
#27 = ORIENTED_EDGE ( 'NONE', *, *, #39, .F. ) ;
#28 = ORIENTED_EDGE ( 'NONE', *, *, #8, .F. ) ;
#29 = VERTEX_POINT ( 'NONE', #61 ) ;
#30 = ADVANCED_FACE ( 'NONE', ( #60 ), #71, .T. ) ;
#31 = ORIENTED_EDGE ( 'NONE', *, *, #8, .T. ) ;
#32 = ORIENTED_EDGE ( 'NONE', *, *, #16, .F. ) ;
#33 = ORIENTED_EDGE ( 'NONE', *, *, #26, .F. ) ;
#34 = ADVANCED_FACE ( 'NONE', ( #96 ), #112, .F. ) ;
#35 = EDGE_LOOP ( 'NONE', ( #27, #28 ) ) ;
#36 = ADVANCED_FACE ( 'NONE', ( #110 ), #231, .T. ) ;
#37 = EDGE_LOOP ( 'NONE', ( #38, #42, #45, #77, #80 ) ) ;
#38 = ORIENTED_EDGE ( 'NONE', *, *, #39, .T. ) ;
#39 = EDGE_CURVE ( 'NONE', #40, #41, #176, .T. ) ;
#40 = VERTEX_POINT ( 'NONE', #151 ) ;
#41 = VERTEX_POINT ( 'NONE', #150 ) ;
#42 = ORIENTED_EDGE ( 'NONE', *, *, #43, .T. ) ;
#43 = EDGE_CURVE ( 'NONE', #41, #44, #218, .T. ) ;
#44 = VERTEX_POINT ( 'NONE', #214 ) ;
#45 = ORIENTED_EDGE ( 'NONE', *, *, #46, .F. ) ;
#46 = EDGE_CURVE ( 'NONE', #47, #44, #196, .T. ) ;
#47 = VERTEX_POINT ( 'NONE', #226 ) ;
#48 =( NAMED_UNIT ( * ) PLANE_ANGLE_UNIT ( ) SI_UNIT ( $, .RADIAN. ) );
#49 =( LENGTH_UNIT ( ) NAMED_UNIT ( * ) SI_UNIT ( .MILLI., .METRE. ) );
#50 = MECHANICAL_DESIGN_GEOMETRIC_PRESENTATION_REPRESENTATION (  '', ( #52 ), #72 ) ;
#51 = PRESENTATION_LAYER_ASSIGNMENT (  '', '', ( #52 ) ) ;
#52 = STYLED_ITEM ( 'NONE', ( #53 ), #30 ) ;
#53 = PRESENTATION_STYLE_ASSIGNMENT (( #54 ) ) ;
#54 = SURFACE_STYLE_USAGE ( .BOTH. , #55 ) ;
#55 = SURFACE_SIDE_STYLE ('',( #56 ) ) ;
#56 = SURFACE_STYLE_FILL_AREA ( #57 ) ;
#57 = FILL_AREA_STYLE ('',( #58 ) ) ;
#58 = FILL_AREA_STYLE_COLOUR ( '', #59 ) ;
#59 = COLOUR_RGB ( '',0.9568627450980391500, 0.9490196078431372100, 0.9607843137254902200 ) ;
#60 = FACE_OUTER_BOUND ( 'NONE', #11, .T. ) ;
#61 = CARTESIAN_POINT ( 'NONE',  ( -3.110500138708828700E-015, -25.39999999999992000, 0.7133109095837255600 ) ) ;
#62 = DIRECTION ( 'NONE',  ( 1.000000000000000000, 0.0000000000000000000, 0.0000000000000000000 ) ) ;
#63 = DIRECTION ( 'NONE',  ( -0.0000000000000000000, -0.0000000000000000000, 1.000000000000000000 ) ) ;
#64 = AXIS2_PLACEMENT_3D ( 'NONE', #118, #63, #62 ) ;
#65 = CIRCLE ( 'NONE', #64, 25.39999999999999900 ) ;
#66 = DIRECTION ( 'NONE',  ( -1.224606353822377300E-016, -1.000000000000000000, 0.0000000000000000000 ) ) ;
#67 = DIRECTION ( 'NONE',  ( -1.000000000000000000, 1.224606353822377300E-016, 0.0000000000000000000 ) ) ;
#68 = AXIS2_PLACEMENT_3D ( 'NONE', #124, #67, #66 ) ;
#69 = CARTESIAN_POINT ( 'NONE',  ( 0.0000000000000000000, 0.0000000000000000000, -203.7449999999999800 ) ) ;
#70 = AXIS2_PLACEMENT_3D ( 'NONE', #69, #95, #94 ) ;
#71 = SPHERICAL_SURFACE ( 'NONE', #70, 206.0300000000000000 ) ;
#72 =( GEOMETRIC_REPRESENTATION_CONTEXT ( 3 ) GLOBAL_UNCERTAINTY_ASSIGNED_CONTEXT ( ( #73 ) ) GLOBAL_UNIT_ASSIGNED_CONTEXT ( ( #49, #48, #74 ) ) REPRESENTATION_CONTEXT ( 'NONE', 'WORKASPACE' ) );
#73 = UNCERTAINTY_MEASURE_WITH_UNIT (LENGTH_MEASURE( 1.000000000000000100E-005 ), #49, 'distance_accuracy_value', 'NONE');
#74 =( NAMED_UNIT ( * ) SI_UNIT ( $, .STERADIAN. ) SOLID_ANGLE_UNIT ( ) );
#75 = ADVANCED_FACE ( 'NONE', ( #225 ), #148, .T. ) ;
#76 = EDGE_LOOP ( 'NONE', ( #19, #18, #22, #10 ) ) ;
#77 = ORIENTED_EDGE ( 'NONE', *, *, #78, .F. ) ;
#78 = EDGE_CURVE ( 'NONE', #79, #47, #147, .T. ) ;
#79 = VERTEX_POINT ( 'NONE', #186 ) ;
#80 = ORIENTED_EDGE ( 'NONE', *, *, #81, .F. ) ;
#81 = EDGE_CURVE ( 'NONE', #40, #79, #184, .T. ) ;
#82 = ADVANCED_FACE ( 'NONE', ( #180 ), #204, .T. ) ;
#83 = MANIFOLD_SOLID_BREP ( 'NONE', #25 ) ;
#84 =( LENGTH_UNIT ( ) NAMED_UNIT ( * ) SI_UNIT ( .MILLI., .METRE. ) );
#85 = MECHANICAL_DESIGN_GEOMETRIC_PRESENTATION_REPRESENTATION (  '', ( #87 ), #113 ) ;
#86 = PRESENTATION_LAYER_ASSIGNMENT (  '', '', ( #87 ) ) ;
#87 = STYLED_ITEM ( 'NONE', ( #88 ), #34 ) ;
#88 = PRESENTATION_STYLE_ASSIGNMENT (( #89 ) ) ;
#89 = SURFACE_STYLE_USAGE ( .BOTH. , #90 ) ;
#90 = SURFACE_SIDE_STYLE ('',( #91 ) ) ;
#91 = SURFACE_STYLE_FILL_AREA ( #92 ) ;
#92 = FILL_AREA_STYLE ('',( #97 ) ) ;
#93 = COLOUR_RGB ( '',0.9568627450980391500, 0.9490196078431372100, 0.9607843137254902200 ) ;
#94 = DIRECTION ( 'NONE',  ( 0.0000000000000000000, 1.000000000000000000, 0.0000000000000000000 ) ) ;
#95 = DIRECTION ( 'NONE',  ( -1.000000000000000000, 0.0000000000000000000, 0.0000000000000000000 ) ) ;
#96 = FACE_OUTER_BOUND ( 'NONE', #35, .T. ) ;
#97 = FILL_AREA_STYLE_COLOUR ( '', #93 ) ;
#98 = PRESENTATION_LAYER_ASSIGNMENT (  '', '', ( #99 ) ) ;
#99 = STYLED_ITEM ( 'NONE', ( #100 ), #36 ) ;
#100 = PRESENTATION_STYLE_ASSIGNMENT (( #101 ) ) ;
#101 = SURFACE_STYLE_USAGE ( .BOTH. , #102 ) ;
#102 = SURFACE_SIDE_STYLE ('',( #103 ) ) ;
#103 = SURFACE_STYLE_FILL_AREA ( #104 ) ;
#104 = FILL_AREA_STYLE ('',( #111 ) ) ;
#105 = COLOUR_RGB ( '',0.9568627450980391500, 0.9490196078431372100, 0.9607843137254902200 ) ;
#106 = DIRECTION ( 'NONE',  ( 1.000000000000000000, 0.0000000000000000000, 0.0000000000000000000 ) ) ;
#107 = DIRECTION ( 'NONE',  ( 0.0000000000000000000, -0.0000000000000000000, 1.000000000000000000 ) ) ;
#108 = CARTESIAN_POINT ( 'NONE',  ( 0.0000000000000000000, 8.394953808155105800E-016, -2.285000000000000100 ) ) ;
#109 = AXIS2_PLACEMENT_3D ( 'NONE', #108, #107, #106 ) ;
#110 = FACE_OUTER_BOUND ( 'NONE', #37, .T. ) ;
#111 = FILL_AREA_STYLE_COLOUR ( '', #105 ) ;
#112 = PLANE ( 'NONE',  #109 ) ;
#113 =( GEOMETRIC_REPRESENTATION_CONTEXT ( 3 ) GLOBAL_UNCERTAINTY_ASSIGNED_CONTEXT ( ( #114 ) ) GLOBAL_UNIT_ASSIGNED_CONTEXT ( ( #84, #116, #115 ) ) REPRESENTATION_CONTEXT ( 'NONE', 'WORKASPACE' ) );
#114 = UNCERTAINTY_MEASURE_WITH_UNIT (LENGTH_MEASURE( 1.000000000000000100E-005 ), #84, 'distance_accuracy_value', 'NONE');
#115 =( NAMED_UNIT ( * ) SI_UNIT ( $, .STERADIAN. ) SOLID_ANGLE_UNIT ( ) );
#116 =( NAMED_UNIT ( * ) PLANE_ANGLE_UNIT ( ) SI_UNIT ( $, .RADIAN. ) );
#117 = CIRCLE ( 'NONE', #68, 206.0300000000000000 ) ;
#118 = CARTESIAN_POINT ( 'NONE',  ( 0.0000000000000000000, 0.0000000000000000000, 0.7133109095837425500 ) ) ;
#119 = DIRECTION ( 'NONE',  ( 0.0000000000000000000, 0.0000000000000000000, -1.000000000000000000 ) ) ;
#120 = DIRECTION ( 'NONE',  ( 1.000000000000000000, 0.0000000000000000000, 0.0000000000000000000 ) ) ;
#121 = CARTESIAN_POINT ( 'NONE',  ( 0.0000000000000000000, 0.0000000000000000000, -203.7449999999999800 ) ) ;
#122 = AXIS2_PLACEMENT_3D ( 'NONE', #121, #120, #119 ) ;
#123 = CIRCLE ( 'NONE', #122, 206.0300000000000300 ) ;
#124 = CARTESIAN_POINT ( 'NONE',  ( 0.0000000000000000000, 0.0000000000000000000, -203.7449999999999800 ) ) ;
#125 = CARTESIAN_POINT ( 'NONE',  ( 0.0000000000000000000, 1.261528235390121800E-014, 2.285000000000009000 ) ) ;
#126 = DIRECTION ( 'NONE',  ( 1.000000000000000000, 0.0000000000000000000, 0.0000000000000000000 ) ) ;
#127 = DIRECTION ( 'NONE',  ( -0.0000000000000000000, -0.0000000000000000000, 1.000000000000000000 ) ) ;
#128 = AXIS2_PLACEMENT_3D ( 'NONE', #7, #127, #126 ) ;
#129 = CIRCLE ( 'NONE', #128, 25.39999999999999900 ) ;
#130 = UNCERTAINTY_MEASURE_WITH_UNIT (LENGTH_MEASURE( 1.000000000000000100E-005 ), #133, 'distance_accuracy_value', 'NONE');
#131 =( NAMED_UNIT ( * ) SI_UNIT ( $, .STERADIAN. ) SOLID_ANGLE_UNIT ( ) );
#132 =( NAMED_UNIT ( * ) PLANE_ANGLE_UNIT ( ) SI_UNIT ( $, .RADIAN. ) );
#133 =( LENGTH_UNIT ( ) NAMED_UNIT ( * ) SI_UNIT ( .MILLI., .METRE. ) );
#134 = MECHANICAL_DESIGN_GEOMETRIC_PRESENTATION_REPRESENTATION (  '', ( #136 ), #213 ) ;
#135 = PRESENTATION_LAYER_ASSIGNMENT (  '', '', ( #136 ) ) ;
#136 = STYLED_ITEM ( 'NONE', ( #137 ), #83 ) ;
#137 = PRESENTATION_STYLE_ASSIGNMENT (( #138 ) ) ;
#138 = SURFACE_STYLE_USAGE ( .BOTH. , #139 ) ;
#139 = SURFACE_SIDE_STYLE ('',( #140 ) ) ;
#140 = SURFACE_STYLE_FILL_AREA ( #202 ) ;
#141 =( NAMED_UNIT ( * ) PLANE_ANGLE_UNIT ( ) SI_UNIT ( $, .RADIAN. ) );
#142 = UNCERTAINTY_MEASURE_WITH_UNIT (LENGTH_MEASURE( 1.000000000000000100E-005 ), #156, 'distance_accuracy_value', 'NONE');
#143 =( NAMED_UNIT ( * ) SI_UNIT ( $, .STERADIAN. ) SOLID_ANGLE_UNIT ( ) );
#144 = DIRECTION ( 'NONE',  ( -0.0000000000000000000, -0.0000000000000000000, 1.000000000000000000 ) ) ;
#145 = CARTESIAN_POINT ( 'NONE',  ( 0.0000000000000000000, 0.0000000000000000000, 4.308132045400366600 ) ) ;
#146 = AXIS2_PLACEMENT_3D ( 'NONE', #145, #144, #191 ) ;
#147 = CIRCLE ( 'NONE', #190, 25.39999999999999900 ) ;
#148 = CYLINDRICAL_SURFACE ( 'NONE', #146, 25.39999999999999900 ) ;
#149 =( GEOMETRIC_REPRESENTATION_CONTEXT ( 3 ) GLOBAL_UNCERTAINTY_ASSIGNED_CONTEXT ( ( #142 ) ) GLOBAL_UNIT_ASSIGNED_CONTEXT ( ( #156, #141, #143 ) ) REPRESENTATION_CONTEXT ( 'NONE', 'WORKASPACE' ) );
#150 = CARTESIAN_POINT ( 'NONE',  ( -25.39999999999999900, 3.110500138708838200E-015, -2.285000000000000600 ) ) ;
#151 = CARTESIAN_POINT ( 'NONE',  ( 25.39999999999999900, 0.0000000000000000000, -2.285000000000000600 ) ) ;
#152 = DIRECTION ( 'NONE',  ( 1.000000000000000000, 0.0000000000000000000, 0.0000000000000000000 ) ) ;
#153 = DIRECTION ( 'NONE',  ( -0.0000000000000000000, -0.0000000000000000000, 1.000000000000000000 ) ) ;
#154 =( NAMED_UNIT ( * ) PLANE_ANGLE_UNIT ( ) SI_UNIT ( $, .RADIAN. ) );
#155 = UNCERTAINTY_MEASURE_WITH_UNIT (LENGTH_MEASURE( 1.000000000000000100E-005 ), #229, 'distance_accuracy_value', 'NONE');
#156 =( LENGTH_UNIT ( ) NAMED_UNIT ( * ) SI_UNIT ( .MILLI., .METRE. ) );
#157 = MECHANICAL_DESIGN_GEOMETRIC_PRESENTATION_REPRESENTATION (  '', ( #159 ), #149 ) ;
#158 = PRESENTATION_LAYER_ASSIGNMENT (  '', '', ( #159 ) ) ;
#159 = STYLED_ITEM ( 'NONE', ( #160 ), #75 ) ;
#160 = PRESENTATION_STYLE_ASSIGNMENT (( #219 ) ) ;
#161 =( NAMED_UNIT ( * ) SI_UNIT ( $, .STERADIAN. ) SOLID_ANGLE_UNIT ( ) );
#162 =( NAMED_UNIT ( * ) PLANE_ANGLE_UNIT ( ) SI_UNIT ( $, .RADIAN. ) );
#163 =( LENGTH_UNIT ( ) NAMED_UNIT ( * ) SI_UNIT ( .MILLI., .METRE. ) );
#164 = MECHANICAL_DESIGN_GEOMETRIC_PRESENTATION_REPRESENTATION (  '', ( #166 ), #244 ) ;
#165 = PRESENTATION_LAYER_ASSIGNMENT (  '', '', ( #166 ) ) ;
#166 = STYLED_ITEM ( 'NONE', ( #167 ), #206 ) ;
#167 = PRESENTATION_STYLE_ASSIGNMENT (( #168 ) ) ;
#168 = SURFACE_STYLE_USAGE ( .BOTH. , #169 ) ;
#169 = SURFACE_SIDE_STYLE ('',( #170 ) ) ;
#170 = SURFACE_STYLE_FILL_AREA ( #171 ) ;
#171 = FILL_AREA_STYLE ('',( #172 ) ) ;
#172 = FILL_AREA_STYLE_COLOUR ( '', #173 ) ;
#173 = COLOUR_RGB ( '',0.7960784313725489700, 0.8235294117647058400, 0.9372549019607843100 ) ;
#174 = CARTESIAN_POINT ( 'NONE',  ( 0.0000000000000000000, 0.0000000000000000000, -2.285000000000000600 ) ) ;
#175 = AXIS2_PLACEMENT_3D ( 'NONE', #174, #153, #152 ) ;
#176 = CIRCLE ( 'NONE', #175, 25.39999999999999900 ) ;
#177 = SURFACE_STYLE_FILL_AREA ( #178 ) ;
#178 = FILL_AREA_STYLE ('',( #185 ) ) ;
#179 = COLOUR_RGB ( '',0.9568627450980391500, 0.9490196078431372100, 0.9607843137254902200 ) ;
#180 = FACE_OUTER_BOUND ( 'NONE', #76, .T. ) ;
#181 = DIRECTION ( 'NONE',  ( -0.0000000000000000000, -0.0000000000000000000, 1.000000000000000000 ) ) ;
#182 = VECTOR ( 'NONE', #181, 1000.000000000000000 ) ;
#183 = CARTESIAN_POINT ( 'NONE',  ( 25.39999999999999900, 0.0000000000000000000, 4.308132045400366600 ) ) ;
#184 = LINE ( 'NONE', #183, #182 ) ;
#185 = FILL_AREA_STYLE_COLOUR ( '', #179 ) ;
#186 = CARTESIAN_POINT ( 'NONE',  ( 25.39999999999999900, 0.0000000000000000000, 0.7133109095837425500 ) ) ;
#187 = DIRECTION ( 'NONE',  ( 1.000000000000000000, 0.0000000000000000000, 0.0000000000000000000 ) ) ;
#188 = DIRECTION ( 'NONE',  ( -0.0000000000000000000, -0.0000000000000000000, 1.000000000000000000 ) ) ;
#189 = CARTESIAN_POINT ( 'NONE',  ( 0.0000000000000000000, 0.0000000000000000000, 0.7133109095837425500 ) ) ;
#190 = AXIS2_PLACEMENT_3D ( 'NONE', #189, #188, #187 ) ;
#191 = DIRECTION ( 'NONE',  ( 1.000000000000000000, 0.0000000000000000000, 0.0000000000000000000 ) ) ;
#192 = DIRECTION ( 'NONE',  ( 1.000000000000000000, 0.0000000000000000000, 0.0000000000000000000 ) ) ;
#193 = DIRECTION ( 'NONE',  ( -0.0000000000000000000, -0.0000000000000000000, 1.000000000000000000 ) ) ;
#194 = CARTESIAN_POINT ( 'NONE',  ( 0.0000000000000000000, 0.0000000000000000000, 0.7133109095837425500 ) ) ;
#195 = AXIS2_PLACEMENT_3D ( 'NONE', #194, #228, #227 ) ;
#196 = CIRCLE ( 'NONE', #195, 25.39999999999999900 ) ;
#197 = FILL_AREA_STYLE_COLOUR ( '', #203 ) ;
#198 = DIRECTION ( 'NONE',  ( 0.0000000000000000000, 1.000000000000000000, 0.0000000000000000000 ) ) ;
#199 = DIRECTION ( 'NONE',  ( -1.000000000000000000, 0.0000000000000000000, 0.0000000000000000000 ) ) ;
#200 = CARTESIAN_POINT ( 'NONE',  ( 0.0000000000000000000, 0.0000000000000000000, -203.7449999999999800 ) ) ;
#201 = AXIS2_PLACEMENT_3D ( 'NONE', #200, #199, #198 ) ;
#202 = FILL_AREA_STYLE ('',( #197 ) ) ;
#203 = COLOUR_RGB ( '',0.7960784313725489700, 0.8235294117647058400, 0.9372549019607843100 ) ;
#204 = SPHERICAL_SURFACE ( 'NONE', #201, 206.0300000000000000 ) ;
#205 =( GEOMETRIC_REPRESENTATION_CONTEXT ( 3 ) GLOBAL_UNCERTAINTY_ASSIGNED_CONTEXT ( ( #234 ) ) GLOBAL_UNIT_ASSIGNED_CONTEXT ( ( #237, #236, #235 ) ) REPRESENTATION_CONTEXT ( 'NONE', 'WORKASPACE' ) );
#206 = ADVANCED_BREP_SHAPE_REPRESENTATION ( '4520-E0W', ( #83, #248 ), #207 ) ;
#207 =( GEOMETRIC_REPRESENTATION_CONTEXT ( 3 ) GLOBAL_UNCERTAINTY_ASSIGNED_CONTEXT ( ( #208 ) ) GLOBAL_UNIT_ASSIGNED_CONTEXT ( ( #212, #211, #209 ) ) REPRESENTATION_CONTEXT ( 'NONE', 'WORKASPACE' ) );
#208 = UNCERTAINTY_MEASURE_WITH_UNIT (LENGTH_MEASURE( 1.000000000000000100E-005 ), #212, 'distance_accuracy_value', 'NONE');
#209 =( NAMED_UNIT ( * ) SI_UNIT ( $, .STERADIAN. ) SOLID_ANGLE_UNIT ( ) );
#210 =( NAMED_UNIT ( * ) SI_UNIT ( $, .STERADIAN. ) SOLID_ANGLE_UNIT ( ) );
#211 =( NAMED_UNIT ( * ) PLANE_ANGLE_UNIT ( ) SI_UNIT ( $, .RADIAN. ) );
#212 =( LENGTH_UNIT ( ) NAMED_UNIT ( * ) SI_UNIT ( .MILLI., .METRE. ) );
#213 =( GEOMETRIC_REPRESENTATION_CONTEXT ( 3 ) GLOBAL_UNCERTAINTY_ASSIGNED_CONTEXT ( ( #130 ) ) GLOBAL_UNIT_ASSIGNED_CONTEXT ( ( #133, #132, #131 ) ) REPRESENTATION_CONTEXT ( 'NONE', 'WORKASPACE' ) );
#214 = CARTESIAN_POINT ( 'NONE',  ( -25.39999999999999900, 3.110500138708838200E-015, 0.7133109095837425500 ) ) ;
#215 = DIRECTION ( 'NONE',  ( -0.0000000000000000000, -0.0000000000000000000, 1.000000000000000000 ) ) ;
#216 = VECTOR ( 'NONE', #215, 1000.000000000000000 ) ;
#217 = CARTESIAN_POINT ( 'NONE',  ( -25.39999999999999900, 3.110500138708838200E-015, 4.308132045400366600 ) ) ;
#218 = LINE ( 'NONE', #217, #216 ) ;
#219 = SURFACE_STYLE_USAGE ( .BOTH. , #220 ) ;
#220 = SURFACE_SIDE_STYLE ('',( #221 ) ) ;
#221 = SURFACE_STYLE_FILL_AREA ( #222 ) ;
#222 = FILL_AREA_STYLE ('',( #223 ) ) ;
#223 = FILL_AREA_STYLE_COLOUR ( '', #224 ) ;
#224 = COLOUR_RGB ( '',0.9568627450980391500, 0.9490196078431372100, 0.9607843137254902200 ) ;
#225 = FACE_OUTER_BOUND ( 'NONE', #12, .T. ) ;
#226 = CARTESIAN_POINT ( 'NONE',  ( 0.0000000000000000000, 25.39999999999992000, 0.7133109095837255600 ) ) ;
#227 = DIRECTION ( 'NONE',  ( 1.000000000000000000, 0.0000000000000000000, 0.0000000000000000000 ) ) ;
#228 = DIRECTION ( 'NONE',  ( -0.0000000000000000000, -0.0000000000000000000, 1.000000000000000000 ) ) ;
#229 =( LENGTH_UNIT ( ) NAMED_UNIT ( * ) SI_UNIT ( .MILLI., .METRE. ) );
#230 =( GEOMETRIC_REPRESENTATION_CONTEXT ( 3 ) GLOBAL_UNCERTAINTY_ASSIGNED_CONTEXT ( ( #155 ) ) GLOBAL_UNIT_ASSIGNED_CONTEXT ( ( #229, #154, #210 ) ) REPRESENTATION_CONTEXT ( 'NONE', 'WORKASPACE' ) );
#231 = CYLINDRICAL_SURFACE ( 'NONE', #233, 25.39999999999999900 ) ;
#232 = CARTESIAN_POINT ( 'NONE',  ( 0.0000000000000000000, 0.0000000000000000000, 4.308132045400366600 ) ) ;
#233 = AXIS2_PLACEMENT_3D ( 'NONE', #232, #193, #192 ) ;
#234 = UNCERTAINTY_MEASURE_WITH_UNIT (LENGTH_MEASURE( 1.000000000000000100E-005 ), #237, 'distance_accuracy_value', 'NONE');
#235 =( NAMED_UNIT ( * ) SI_UNIT ( $, .STERADIAN. ) SOLID_ANGLE_UNIT ( ) );
#236 =( NAMED_UNIT ( * ) PLANE_ANGLE_UNIT ( ) SI_UNIT ( $, .RADIAN. ) );
#237 =( LENGTH_UNIT ( ) NAMED_UNIT ( * ) SI_UNIT ( .MILLI., .METRE. ) );
#238 = MECHANICAL_DESIGN_GEOMETRIC_PRESENTATION_REPRESENTATION (  '', ( #240 ), #205 ) ;
#239 = PRESENTATION_LAYER_ASSIGNMENT (  '', '', ( #240 ) ) ;
#240 = STYLED_ITEM ( 'NONE', ( #241 ), #82 ) ;
#241 = PRESENTATION_STYLE_ASSIGNMENT (( #242 ) ) ;
#242 = SURFACE_STYLE_USAGE ( .BOTH. , #243 ) ;
#243 = SURFACE_SIDE_STYLE ('',( #177 ) ) ;
#244 =( GEOMETRIC_REPRESENTATION_CONTEXT ( 3 ) GLOBAL_UNCERTAINTY_ASSIGNED_CONTEXT ( ( #245 ) ) GLOBAL_UNIT_ASSIGNED_CONTEXT ( ( #163, #162, #161 ) ) REPRESENTATION_CONTEXT ( 'NONE', 'WORKASPACE' ) );
#245 = UNCERTAINTY_MEASURE_WITH_UNIT (LENGTH_MEASURE( 1.000000000000000100E-005 ), #163, 'distance_accuracy_value', 'NONE');
#246 = CARTESIAN_POINT ( 'NONE',  ( 0.0000000000000000000, 0.0000000000000000000, 0.0000000000000000000 ) ) ;
#247 = DIRECTION ( 'NONE',  ( 0.0000000000000000000, 0.0000000000000000000, 1.000000000000000000 ) ) ;
#248 = AXIS2_PLACEMENT_3D ( 'NONE', #246, #247, #261 ) ;
#249 = SHAPE_DEFINITION_REPRESENTATION ( #250, #206 ) ;
#250 = PRODUCT_DEFINITION_SHAPE ( 'NONE', 'NONE',  #256 ) ;
#251 = PRODUCT ( '4520-E0W', '4520-E0W', '', ( #252 ) ) ;
#252 = PRODUCT_CONTEXT ( 'NONE', #260, 'mechanical' ) ;
#253 = APPLICATION_PROTOCOL_DEFINITION ( 'draft international standard', 'automotive_design', 1998, #260 ) ;
#254 = PRODUCT_RELATED_PRODUCT_CATEGORY ( 'part', '', ( #251 ) ) ;
#255 = PRODUCT_DEFINITION_FORMATION_WITH_SPECIFIED_SOURCE ( 'ANY', '', #251, .NOT_KNOWN. ) ;
#256 = PRODUCT_DEFINITION ( 'UNKNOWN', '', #255, #257 ) ;
#257 = PRODUCT_DEFINITION_CONTEXT ( 'detailed design', #259, 'design' ) ;
#258 = APPLICATION_PROTOCOL_DEFINITION ( 'draft international standard', 'automotive_design', 1998, #259 ) ;
#259 = APPLICATION_CONTEXT ( 'automotive_design' ) ;
#260 = APPLICATION_CONTEXT ( 'automotive_design' ) ;
#261 = DIRECTION ( 'NONE',  ( 1.000000000000000000, 0.0000000000000000000, 0.0000000000000000000 ) ) ;
ENDSEC;
END-ISO-10303-21;
