ISO-10303-21;
HEADER;
FILE_DESCRIPTION (( 'STEP AP203' ),
    '1' );
FILE_NAME ('20160-E0W.STEP',
    '2018-06-01T18:05:55',
    ( 'admin' ),
    ( '' ),
    'SwSTEP 2.0',
    'SolidWorks 2016',
    '' );
FILE_SCHEMA (( 'CONFIG_CONTROL_DESIGN' ));
ENDSEC;

DATA;
#1 = DIRECTION ( 'NONE',  ( 0.0000000000000000000, -1.000000000000000000, -2.048885995248197700E-016 ) ) ;
#2 = VERTEX_POINT ( 'NONE', #133 ) ;
#3 = CC_DESIGN_APPROVAL ( #273, ( #266 ) ) ;
#4 = EDGE_CURVE ( 'NONE', #9, #24, #267, .T. ) ;
#5 = VERTEX_POINT ( 'NONE', #62 ) ;
#6 = DIRECTION ( 'NONE',  ( -0.0000000000000000000, -1.836909530733565900E-016, 1.000000000000000000 ) ) ;
#7 = ORIENTED_EDGE ( 'NONE', *, *, #149, .F. ) ;
#8 = DATE_AND_TIME ( #255, #215 ) ;
#9 = VERTEX_POINT ( 'NONE', #238 ) ;
#10 = FACE_OUTER_BOUND ( 'NONE', #233, .T. ) ;
#11 =( NAMED_UNIT ( * ) PLANE_ANGLE_UNIT ( ) SI_UNIT ( $, .RADIAN. ) );
#12 = PERSON_AND_ORGANIZATION_ROLE ( 'design_supplier' ) ;
#13 = PERSON ( 'UNSPECIFIED', 'UNSPECIFIED', 'UNSPECIFIED', ('UNSPECIFIED'), ('UNSPECIFIED'), ('UNSPECIFIED') ) ;
#14 = CC_DESIGN_PERSON_AND_ORGANIZATION_ASSIGNMENT ( #121, #208, ( #266 ) ) ;
#15 = CIRCLE ( 'NONE', #200, 0.5905511811023621500 ) ;
#16 = ORIENTED_EDGE ( 'NONE', *, *, #274, .T. ) ;
#17 = DATE_TIME_ROLE ( 'classification_date' ) ;
#18 = DATE_AND_TIME ( #122, #106 ) ;
#19 = ADVANCED_FACE ( 'NONE', ( #134 ), #201, .T. ) ;
#20 = ORIENTED_EDGE ( 'NONE', *, *, #4, .F. ) ;
#21 = APPROVAL_ROLE ( '' ) ;
#22 = DIRECTION ( 'NONE',  ( 1.224646799147353200E-016, 1.000000000000000000, 0.0000000000000000000 ) ) ;
#23 = CARTESIAN_POINT ( 'NONE',  ( 0.0000000000000000000, 0.0000000000000000000, 5.948940389603614600 ) ) ;
#24 = VERTEX_POINT ( 'NONE', #36 ) ;
#25 = EDGE_CURVE ( 'NONE', #153, #5, #38, .T. ) ;
#26 = CC_DESIGN_PERSON_AND_ORGANIZATION_ASSIGNMENT ( #229, #12, ( #266 ) ) ;
#27 = EDGE_LOOP ( 'NONE', ( #239, #166, #53 ) ) ;
#28 = DIRECTION ( 'NONE',  ( 0.0000000000000000000, 1.836909530733565900E-016, -1.000000000000000000 ) ) ;
#29 = CARTESIAN_POINT ( 'NONE',  ( 0.0000000000000000000, -2.865343138924831400E-018, 0.1791847756035563600 ) ) ;
#30 = ORIENTED_EDGE ( 'NONE', *, *, #4, .T. ) ;
#31 = AXIS2_PLACEMENT_3D ( 'NONE', #193, #189, #212 ) ;
#32 = DIRECTION ( 'NONE',  ( -0.0000000000000000000, -1.836909530733565900E-016, 1.000000000000000000 ) ) ;
#33 = APPROVAL_ROLE ( '' ) ;
#34 = DIRECTION ( 'NONE',  ( -0.0000000000000000000, -1.836909530733565900E-016, 1.000000000000000000 ) ) ;
#35 = COORDINATED_UNIVERSAL_TIME_OFFSET ( 5, 0, .BEHIND. ) ;
#36 = CARTESIAN_POINT ( 'NONE',  ( -6.055048479497828400E-017, -0.4944322300694025700, 0.1847525455341591800 ) ) ;
#37 = SECURITY_CLASSIFICATION ( '', '', #243 ) ;
#38 = CIRCLE ( 'NONE', #64, 0.4999999999999999400 ) ;
#39 = AXIS2_PLACEMENT_3D ( 'NONE', #96, #234, #22 ) ;
#40 = CARTESIAN_POINT ( 'NONE',  ( 6.123233995736764800E-017, 0.4999999999999999400, 0.1791847756035564700 ) ) ;
#41 = COORDINATED_UNIVERSAL_TIME_OFFSET ( 5, 0, .BEHIND. ) ;
#42 = FACE_OUTER_BOUND ( 'NONE', #150, .T. ) ;
#43 = DIRECTION ( 'NONE',  ( -1.000000000000000000, 0.0000000000000000000, 0.0000000000000000000 ) ) ;
#44 = AXIS2_PLACEMENT_3D ( 'NONE', #142, #147, #114 ) ;
#45 = APPROVAL_STATUS ( 'not_yet_approved' ) ;
#46 = ORIENTED_EDGE ( 'NONE', *, *, #148, .T. ) ;
#47 = ADVANCED_BREP_SHAPE_REPRESENTATION ( '20160-E0W', ( #98, #146 ), #86 ) ;
#48 = AXIS2_PLACEMENT_3D ( 'NONE', #23, #124, #272 ) ;
#49 = CC_DESIGN_PERSON_AND_ORGANIZATION_ASSIGNMENT ( #280, #82, ( #37 ) ) ;
#50 = CARTESIAN_POINT ( 'NONE',  ( 0.0000000000000000000, 7.231807861180446000E-017, -0.1852328387428433800 ) ) ;
#51 = AXIS2_PLACEMENT_3D ( 'NONE', #245, #6, #213 ) ;
#52 = ORIENTED_EDGE ( 'NONE', *, *, #269, .T. ) ;
#53 = ORIENTED_EDGE ( 'NONE', *, *, #25, .F. ) ;
#54 = ORIENTED_EDGE ( 'NONE', *, *, #57, .F. ) ;
#55 = CARTESIAN_POINT ( 'NONE',  ( 6.123233995736764800E-017, 0.4999999999999999400, 0.1635860588949520900 ) ) ;
#56 = APPLICATION_CONTEXT ( 'configuration controlled 3d designs of mechanical parts and assemblies' ) ;
#57 = EDGE_CURVE ( 'NONE', #153, #144, #97, .T. ) ;
#58 = ADVANCED_FACE ( 'NONE', ( #275 ), #265, .T. ) ;
#59 = APPROVAL_STATUS ( 'not_yet_approved' ) ;
#60 = CARTESIAN_POINT ( 'NONE',  ( 0.0000000000000000000, 0.0000000000000000000, 0.4053183423595187500 ) ) ;
#61 = ORIENTED_EDGE ( 'NONE', *, *, #176, .T. ) ;
#62 = CARTESIAN_POINT ( 'NONE',  ( 0.0000000000000000000, -0.4999999999999998300, 0.09107210530743391200 ) ) ;
#63 = CALENDAR_DATE ( 2018, 1, 6 ) ;
#64 = AXIS2_PLACEMENT_3D ( 'NONE', #84, #178, #155 ) ;
#65 = VECTOR ( 'NONE', #118, 39.37007874015748100 ) ;
#66 = DATE_AND_TIME ( #228, #185 ) ;
#67 = CC_DESIGN_DATE_AND_TIME_ASSIGNMENT ( #18, #17, ( #37 ) ) ;
#68 = ORIENTED_EDGE ( 'NONE', *, *, #176, .F. ) ;
#69 = AXIS2_PLACEMENT_3D ( 'NONE', #95, #231, #89 ) ;
#70 = CARTESIAN_POINT ( 'NONE',  ( 6.123233995736764800E-017, 0.4999999999999999400, 0.09107210530743409200 ) ) ;
#71 = DIRECTION ( 'NONE',  ( -0.0000000000000000000, -1.836909530733566100E-016, 1.000000000000000000 ) ) ;
#72 = APPROVAL_DATE_TIME ( #66, #76 ) ;
#73 = CARTESIAN_POINT ( 'NONE',  ( 0.0000000000000000000, 0.0000000000000000000, 0.1635860588949519800 ) ) ;
#74 = CIRCLE ( 'NONE', #51, 0.4999999999999999400 ) ;
#75 = COORDINATED_UNIVERSAL_TIME_OFFSET ( 5, 0, .BEHIND. ) ;
#76 = APPROVAL ( #45, 'UNSPECIFIED' ) ;
#77 = EDGE_LOOP ( 'NONE', ( #250, #219, #116 ) ) ;
#78 = DESIGN_CONTEXT ( 'detailed design', #256, 'design' ) ;
#79 = ADVANCED_FACE ( 'NONE', ( #110 ), #220, .T. ) ;
#80 = LINE ( 'NONE', #88, #65 ) ;
#81 = PERSON_AND_ORGANIZATION ( #13, #172 ) ;
#82 = PERSON_AND_ORGANIZATION_ROLE ( 'classification_officer' ) ;
#83 = DIMENSIONAL_EXPONENTS ( 1.000000000000000000, 0.0000000000000000000, 0.0000000000000000000, 0.0000000000000000000, 0.0000000000000000000, 0.0000000000000000000, 0.0000000000000000000 ) ;
#84 = CARTESIAN_POINT ( 'NONE',  ( 0.0000000000000000000, 1.332015724560832600E-017, 0.09107210530743398100 ) ) ;
#85 = CARTESIAN_POINT ( 'NONE',  ( 0.0000000000000000000, -0.4999999999999999400, 0.1635860588949519000 ) ) ;
#86 =( GEOMETRIC_REPRESENTATION_CONTEXT ( 3 ) GLOBAL_UNCERTAINTY_ASSIGNED_CONTEXT ( ( #151 ) ) GLOBAL_UNIT_ASSIGNED_CONTEXT ( ( #248, #11, #206 ) ) REPRESENTATION_CONTEXT ( 'NONE', 'WORKASPACE' ) );
#87 = ADVANCED_FACE ( 'NONE', ( #10 ), #117, .T. ) ;
#88 = CARTESIAN_POINT ( 'NONE',  ( 0.0000000000000000000, 0.4999999999999999400, 0.1791847756035564700 ) ) ;
#89 = DIRECTION ( 'NONE',  ( 0.0000000000000000000, 0.0000000000000000000, -1.000000000000000000 ) ) ;
#90 = PRODUCT ( '20160-E0W', '20160-E0W', '', ( #264 ) ) ;
#91 = AXIS2_PLACEMENT_3D ( 'NONE', #237, #136, #111 ) ;
#92 = CC_DESIGN_APPROVAL ( #76, ( #37 ) ) ;
#93 = CIRCLE ( 'NONE', #39, 0.5905511811023621500 ) ;
#94 = DIRECTION ( 'NONE',  ( 0.0000000000000000000, 1.000000000000000000, 2.048885995248197700E-016 ) ) ;
#95 = CARTESIAN_POINT ( 'NONE',  ( 0.0000000000000000000, 0.0000000000000000000, 5.948940389603614600 ) ) ;
#96 = CARTESIAN_POINT ( 'NONE',  ( 0.0000000000000000000, 0.0000000000000000000, 0.4053183423595187500 ) ) ;
#97 = LINE ( 'NONE', #55, #107 ) ;
#98 = MANIFOLD_SOLID_BREP ( '20160-001-1-solid1', #207 ) ;
#99 = ORIENTED_EDGE ( 'NONE', *, *, #57, .T. ) ;
#100 = VECTOR ( 'NONE', #71, 39.37007874015748100 ) ;
#101 = ADVANCED_FACE ( 'NONE', ( #242 ), #241, .T. ) ;
#102 =( LENGTH_UNIT ( ) NAMED_UNIT ( * ) SI_UNIT ( $, .METRE. ) );
#103 = APPROVAL_ROLE ( '' ) ;
#104 = DIRECTION ( 'NONE',  ( -1.000000000000000000, 0.0000000000000000000, -0.0000000000000000000 ) ) ;
#105 = ORIENTED_EDGE ( 'NONE', *, *, #25, .T. ) ;
#106 = LOCAL_TIME ( 14, 5, 55.00000000000000000, #112 ) ;
#107 = VECTOR ( 'NONE', #158, 39.37007874015748100 ) ;
#108 = CC_DESIGN_SECURITY_CLASSIFICATION ( #37, ( #266 ) ) ;
#109 = CARTESIAN_POINT ( 'NONE',  ( 0.0000000000000000000, 1.332015724560832600E-017, 0.09107210530743398100 ) ) ;
#110 = FACE_OUTER_BOUND ( 'NONE', #196, .T. ) ;
#111 = DIRECTION ( 'NONE',  ( 0.0000000000000000000, -1.000000000000000000, -2.071958370271110500E-016 ) ) ;
#112 = COORDINATED_UNIVERSAL_TIME_OFFSET ( 5, 0, .BEHIND. ) ;
#113 = AXIS2_PLACEMENT_3D ( 'NONE', #163, #28, #94 ) ;
#114 = DIRECTION ( 'NONE',  ( 0.0000000000000000000, -1.000000000000000000, -2.312964634635743000E-016 ) ) ;
#115 = ORIENTED_EDGE ( 'NONE', *, *, #126, .T. ) ;
#116 = ORIENTED_EDGE ( 'NONE', *, *, #148, .F. ) ;
#117 = CYLINDRICAL_SURFACE ( 'NONE', #268, 0.4999999999999999400 ) ;
#118 = DIRECTION ( 'NONE',  ( 0.0000000000000000000, 0.7071067811865563400, -0.7071067811865386900 ) ) ;
#119 = DIRECTION ( 'NONE',  ( 0.0000000000000000000, 0.0000000000000000000, 1.000000000000000000 ) ) ;
#120 = CARTESIAN_POINT ( 'NONE',  ( 0.0000000000000000000, 0.0000000000000000000, 0.0000000000000000000 ) ) ;
#121 = PERSON_AND_ORGANIZATION ( #13, #172 ) ;
#122 = CALENDAR_DATE ( 2018, 1, 6 ) ;
#123 = PRODUCT_RELATED_PRODUCT_CATEGORY ( 'detail', '', ( #90 ) ) ;
#124 = DIRECTION ( 'NONE',  ( -1.000000000000000000, 1.224646799147353200E-016, 2.249565377136128000E-032 ) ) ;
#125 = DIRECTION ( 'NONE',  ( 0.0000000000000000000, 1.000000000000000000, 2.048885995248197700E-016 ) ) ;
#126 = EDGE_CURVE ( 'NONE', #5, #2, #131, .T. ) ;
#127 = DIRECTION ( 'NONE',  ( -0.0000000000000000000, -1.836909530733565900E-016, 1.000000000000000000 ) ) ;
#128 = SHAPE_DEFINITION_REPRESENTATION ( #257, #47 ) ;
#129 = DIRECTION ( 'NONE',  ( 0.0000000000000000000, -1.000000000000000000, -1.707404996040164800E-016 ) ) ;
#130 = ADVANCED_FACE ( 'NONE', ( #42 ), #135, .F. ) ;
#131 = LINE ( 'NONE', #85, #100 ) ;
#132 = LINE ( 'NONE', #278, #235 ) ;
#133 = CARTESIAN_POINT ( 'NONE',  ( 0.0000000000000000000, -0.4999999999999999400, 0.1791847756035562500 ) ) ;
#134 = FACE_OUTER_BOUND ( 'NONE', #77, .T. ) ;
#135 = SPHERICAL_SURFACE ( 'NONE', #188, 5.785354330708662100 ) ;
#136 = DIRECTION ( 'NONE',  ( -0.0000000000000000000, -1.836909530733565900E-016, 1.000000000000000000 ) ) ;
#137 = CARTESIAN_POINT ( 'NONE',  ( 0.0000000000000000000, -2.865343138924831400E-018, 0.1791847756035563600 ) ) ;
#138 = ORIENTED_EDGE ( 'NONE', *, *, #274, .F. ) ;
#139 = APPLICATION_PROTOCOL_DEFINITION ( 'international standard', 'config_control_design', 1994, #56 ) ;
#140 = APPROVAL_DATE_TIME ( #173, #199 ) ;
#141 = APPROVAL_PERSON_ORGANIZATION ( #191, #273, #33 ) ;
#142 = CARTESIAN_POINT ( 'NONE',  ( 0.0000000000000000000, 0.0000000000000000000, 0.4053183423595187500 ) ) ;
#143 = ORIENTED_EDGE ( 'NONE', *, *, #180, .F. ) ;
#144 = VERTEX_POINT ( 'NONE', #40 ) ;
#145 = FACE_OUTER_BOUND ( 'NONE', #162, .T. ) ;
#146 = AXIS2_PLACEMENT_3D ( 'NONE', #120, #119, #261 ) ;
#147 = DIRECTION ( 'NONE',  ( 1.000000000000000000, 0.0000000000000000000, 0.0000000000000000000 ) ) ;
#148 = EDGE_CURVE ( 'NONE', #5, #153, #192, .T. ) ;
#149 = EDGE_CURVE ( 'NONE', #24, #9, #164, .T. ) ;
#150 = EDGE_LOOP ( 'NONE', ( #271, #16, #30 ) ) ;
#151 = UNCERTAINTY_MEASURE_WITH_UNIT (LENGTH_MEASURE( 1.000000000000000100E-005 ), #248, 'distance_accuracy_value', 'NONE');
#152 = COORDINATED_UNIVERSAL_TIME_OFFSET ( 5, 0, .BEHIND. ) ;
#153 = VERTEX_POINT ( 'NONE', #70 ) ;
#154 = DIRECTION ( 'NONE',  ( -0.0000000000000000000, -1.836909530733565900E-016, 1.000000000000000000 ) ) ;
#155 = DIRECTION ( 'NONE',  ( 0.0000000000000000000, -1.000000000000000000, -1.707404996040164800E-016 ) ) ;
#156 = EDGE_LOOP ( 'NONE', ( #46, #99, #183, #240 ) ) ;
#157 = CONICAL_SURFACE ( 'NONE', #113, 0.4999999999999999400, 0.7853981633974606000 ) ;
#158 = DIRECTION ( 'NONE',  ( -0.0000000000000000000, -1.836909530733566100E-016, 1.000000000000000000 ) ) ;
#159 = PERSON_AND_ORGANIZATION_ROLE ( 'design_owner' ) ;
#160 = CC_DESIGN_PERSON_AND_ORGANIZATION_ASSIGNMENT ( #81, #159, ( #90 ) ) ;
#161 = VERTEX_POINT ( 'NONE', #211 ) ;
#162 = EDGE_LOOP ( 'NONE', ( #7, #186, #52, #222 ) ) ;
#163 = CARTESIAN_POINT ( 'NONE',  ( 0.0000000000000000000, -2.865343138924831400E-018, 0.1791847756035563600 ) ) ;
#164 = CIRCLE ( 'NONE', #91, 0.4944322300693970700 ) ;
#165 = DIRECTION ( 'NONE',  ( 0.0000000000000000000, 0.0000000000000000000, 1.000000000000000000 ) ) ;
#166 = ORIENTED_EDGE ( 'NONE', *, *, #236, .T. ) ;
#167 = AXIS2_PLACEMENT_3D ( 'NONE', #109, #154, #129 ) ;
#168 = DIRECTION ( 'NONE',  ( 0.0000000000000000000, 1.000000000000000000, 1.888802543459516800E-016 ) ) ;
#169 = PERSON_AND_ORGANIZATION_ROLE ( 'creator' ) ;
#170 = PERSON_AND_ORGANIZATION ( #13, #172 ) ;
#171 = APPROVAL_PERSON_ORGANIZATION ( #204, #199, #103 ) ;
#172 = ORGANIZATION ( 'UNSPECIFIED', 'UNSPECIFIED', '' ) ;
#173 = DATE_AND_TIME ( #224, #190 ) ;
#174 = DIRECTION ( 'NONE',  ( 0.0000000000000000000, 1.836909530733565900E-016, -1.000000000000000000 ) ) ;
#175 = AXIS2_PLACEMENT_3D ( 'NONE', #223, #195, #214 ) ;
#176 = EDGE_CURVE ( 'NONE', #144, #2, #244, .T. ) ;
#177 = DIRECTION ( 'NONE',  ( -0.0000000000000000000, -1.836909530733565900E-016, 1.000000000000000000 ) ) ;
#178 = DIRECTION ( 'NONE',  ( -0.0000000000000000000, -1.836909530733565900E-016, 1.000000000000000000 ) ) ;
#179 = PERSON_AND_ORGANIZATION ( #13, #172 ) ;
#180 = EDGE_CURVE ( 'NONE', #24, #2, #132, .T. ) ;
#181 = CARTESIAN_POINT ( 'NONE',  ( 0.0000000000000000000, 0.0000000000000000000, 5.948940389603614600 ) ) ;
#182 = ADVANCED_FACE ( 'NONE', ( #145 ), #157, .T. ) ;
#183 = ORIENTED_EDGE ( 'NONE', *, *, #269, .F. ) ;
#184 = PRODUCT_DEFINITION ( 'UNKNOWN', '', #266, #78 ) ;
#185 = LOCAL_TIME ( 14, 5, 55.00000000000000000, #41 ) ;
#186 = ORIENTED_EDGE ( 'NONE', *, *, #180, .T. ) ;
#187 = EDGE_CURVE ( 'NONE', #161, #24, #276, .T. ) ;
#188 = AXIS2_PLACEMENT_3D ( 'NONE', #181, #43, #168 ) ;
#189 = DIRECTION ( 'NONE',  ( -1.000000000000000000, 0.0000000000000000000, 0.0000000000000000000 ) ) ;
#190 = LOCAL_TIME ( 14, 5, 55.00000000000000000, #152 ) ;
#191 = PERSON_AND_ORGANIZATION ( #13, #172 ) ;
#192 = CIRCLE ( 'NONE', #167, 0.4999999999999999400 ) ;
#193 = CARTESIAN_POINT ( 'NONE',  ( 0.0000000000000000000, 0.0000000000000000000, 5.948940389603614600 ) ) ;
#194 = APPROVAL_STATUS ( 'not_yet_approved' ) ;
#195 = DIRECTION ( 'NONE',  ( 1.000000000000000000, 0.0000000000000000000, 0.0000000000000000000 ) ) ;
#196 = EDGE_LOOP ( 'NONE', ( #143, #20, #226, #61 ) ) ;
#197 = DIRECTION ( 'NONE',  ( 0.0000000000000000000, -1.000000000000000000, -2.071958370271110500E-016 ) ) ;
#198 = ADVANCED_FACE ( 'NONE', ( #210 ), #252, .F. ) ;
#199 = APPROVAL ( #59, 'UNSPECIFIED' ) ;
#200 = AXIS2_PLACEMENT_3D ( 'NONE', #60, #104, #165 ) ;
#201 = SPHERICAL_SURFACE ( 'NONE', #44, 0.5905511811023621500 ) ;
#202 = EDGE_LOOP ( 'NONE', ( #138, #259, #258 ) ) ;
#203 = APPROVAL_DATE_TIME ( #8, #273 ) ;
#204 = PERSON_AND_ORGANIZATION ( #13, #172 ) ;
#205 = DIRECTION ( 'NONE',  ( 0.0000000000000000000, -1.000000000000000000, -2.048885995248197700E-016 ) ) ;
#206 =( NAMED_UNIT ( * ) SI_UNIT ( $, .STERADIAN. ) SOLID_ANGLE_UNIT ( ) );
#207 = CLOSED_SHELL ( 'NONE', ( #182, #58, #19, #198, #130, #101, #87, #79 ) ) ;
#208 = PERSON_AND_ORGANIZATION_ROLE ( 'creator' ) ;
#209 = LOCAL_TIME ( 14, 5, 55.00000000000000000, #35 ) ;
#210 = FACE_OUTER_BOUND ( 'NONE', #202, .T. ) ;
#211 = CARTESIAN_POINT ( 'NONE',  ( 0.0000000000000000000, 1.416968034026727500E-015, 0.1635860588949518100 ) ) ;
#212 = DIRECTION ( 'NONE',  ( 0.0000000000000000000, 1.000000000000000000, 1.888802543459516800E-016 ) ) ;
#213 = DIRECTION ( 'NONE',  ( 0.0000000000000000000, -1.000000000000000000, -2.048885995248197700E-016 ) ) ;
#214 = DIRECTION ( 'NONE',  ( 0.0000000000000000000, -1.000000000000000000, -2.312964634635743000E-016 ) ) ;
#215 = LOCAL_TIME ( 14, 5, 55.00000000000000000, #75 ) ;
#216 = DIRECTION ( 'NONE',  ( 0.0000000000000000000, -1.000000000000000000, -2.048885995248197700E-016 ) ) ;
#217 = DATE_AND_TIME ( #63, #209 ) ;
#218 = CC_DESIGN_APPROVAL ( #199, ( #184 ) ) ;
#219 = ORIENTED_EDGE ( 'NONE', *, *, #249, .T. ) ;
#220 = CONICAL_SURFACE ( 'NONE', #253, 0.4999999999999999400, 0.7853981633974606000 ) ;
#221 = DATE_TIME_ROLE ( 'creation_date' ) ;
#222 = ORIENTED_EDGE ( 'NONE', *, *, #260, .F. ) ;
#223 = CARTESIAN_POINT ( 'NONE',  ( 0.0000000000000000000, 0.0000000000000000000, 0.4053183423595187500 ) ) ;
#224 = CALENDAR_DATE ( 2018, 1, 6 ) ;
#225 = VERTEX_POINT ( 'NONE', #50 ) ;
#226 = ORIENTED_EDGE ( 'NONE', *, *, #260, .T. ) ;
#227 = AXIS2_PLACEMENT_3D ( 'NONE', #270, #127, #205 ) ;
#228 = CALENDAR_DATE ( 2018, 1, 6 ) ;
#229 = PERSON_AND_ORGANIZATION ( #13, #172 ) ;
#230 = APPROVAL_PERSON_ORGANIZATION ( #170, #76, #21 ) ;
#231 = DIRECTION ( 'NONE',  ( 1.000000000000000000, 0.0000000000000000000, 0.0000000000000000000 ) ) ;
#232 = CC_DESIGN_PERSON_AND_ORGANIZATION_ASSIGNMENT ( #179, #169, ( #184 ) ) ;
#233 = EDGE_LOOP ( 'NONE', ( #54, #105, #115, #68 ) ) ;
#234 = DIRECTION ( 'NONE',  ( 1.000000000000000000, -1.224646799147353200E-016, -2.249565377136128000E-032 ) ) ;
#235 = VECTOR ( 'NONE', #279, 39.37007874015748100 ) ;
#236 = EDGE_CURVE ( 'NONE', #225, #5, #15, .T. ) ;
#237 = CARTESIAN_POINT ( 'NONE',  ( 0.0000000000000000000, -3.888092103970426100E-018, 0.1847525455341591000 ) ) ;
#238 = CARTESIAN_POINT ( 'NONE',  ( 0.0000000000000000000, 0.4944322300694035100, 0.1847525455341593200 ) ) ;
#239 = ORIENTED_EDGE ( 'NONE', *, *, #249, .F. ) ;
#240 = ORIENTED_EDGE ( 'NONE', *, *, #126, .F. ) ;
#241 = SPHERICAL_SURFACE ( 'NONE', #175, 0.5905511811023621500 ) ;
#242 = FACE_OUTER_BOUND ( 'NONE', #27, .T. ) ;
#243 = SECURITY_CLASSIFICATION_LEVEL ( 'unclassified' ) ;
#244 = CIRCLE ( 'NONE', #246, 0.4999999999999999400 ) ;
#245 = CARTESIAN_POINT ( 'NONE',  ( 0.0000000000000000000, -2.865343138924831400E-018, 0.1791847756035563600 ) ) ;
#246 = AXIS2_PLACEMENT_3D ( 'NONE', #137, #34, #216 ) ;
#247 = CC_DESIGN_DATE_AND_TIME_ASSIGNMENT ( #217, #221, ( #184 ) ) ;
#248 =( CONVERSION_BASED_UNIT ( 'INCH', #254 ) LENGTH_UNIT ( ) NAMED_UNIT ( #83 ) );
#249 = EDGE_CURVE ( 'NONE', #225, #153, #93, .T. ) ;
#250 = ORIENTED_EDGE ( 'NONE', *, *, #236, .F. ) ;
#251 = CARTESIAN_POINT ( 'NONE',  ( 0.0000000000000000000, -3.888092103970426100E-018, 0.1847525455341591000 ) ) ;
#252 = SPHERICAL_SURFACE ( 'NONE', #31, 5.785354330708662100 ) ;
#253 = AXIS2_PLACEMENT_3D ( 'NONE', #29, #174, #125 ) ;
#254 = LENGTH_MEASURE_WITH_UNIT ( LENGTH_MEASURE( 0.02539999999999999900 ), #102 );
#255 = CALENDAR_DATE ( 2018, 1, 6 ) ;
#256 = APPLICATION_CONTEXT ( 'configuration controlled 3d designs of mechanical parts and assemblies' ) ;
#257 = PRODUCT_DEFINITION_SHAPE ( 'NONE', 'NONE',  #184 ) ;
#258 = ORIENTED_EDGE ( 'NONE', *, *, #149, .T. ) ;
#259 = ORIENTED_EDGE ( 'NONE', *, *, #187, .T. ) ;
#260 = EDGE_CURVE ( 'NONE', #9, #144, #80, .T. ) ;
#261 = DIRECTION ( 'NONE',  ( 1.000000000000000000, 0.0000000000000000000, 0.0000000000000000000 ) ) ;
#262 = AXIS2_PLACEMENT_3D ( 'NONE', #251, #177, #197 ) ;
#263 = APPLICATION_PROTOCOL_DEFINITION ( 'international standard', 'config_control_design', 1994, #256 ) ;
#264 = MECHANICAL_CONTEXT ( 'NONE', #56, 'mechanical' ) ;
#265 = CYLINDRICAL_SURFACE ( 'NONE', #227, 0.4999999999999999400 ) ;
#266 = PRODUCT_DEFINITION_FORMATION_WITH_SPECIFIED_SOURCE ( 'ANY', '', #90, .NOT_KNOWN. ) ;
#267 = CIRCLE ( 'NONE', #262, 0.4944322300693970700 ) ;
#268 = AXIS2_PLACEMENT_3D ( 'NONE', #73, #32, #1 ) ;
#269 = EDGE_CURVE ( 'NONE', #2, #144, #74, .T. ) ;
#270 = CARTESIAN_POINT ( 'NONE',  ( 0.0000000000000000000, 0.0000000000000000000, 0.1635860588949519800 ) ) ;
#271 = ORIENTED_EDGE ( 'NONE', *, *, #187, .F. ) ;
#272 = DIRECTION ( 'NONE',  ( -1.224646799147353200E-016, -1.000000000000000000, 0.0000000000000000000 ) ) ;
#273 = APPROVAL ( #194, 'UNSPECIFIED' ) ;
#274 = EDGE_CURVE ( 'NONE', #161, #9, #277, .T. ) ;
#275 = FACE_OUTER_BOUND ( 'NONE', #156, .T. ) ;
#276 = CIRCLE ( 'NONE', #48, 5.785354330708662100 ) ;
#277 = CIRCLE ( 'NONE', #69, 5.785354330708662100 ) ;
#278 = CARTESIAN_POINT ( 'NONE',  ( 6.123233995736764800E-017, -0.4999999999999999400, 0.1791847756035562500 ) ) ;
#279 = DIRECTION ( 'NONE',  ( 8.659560562355040100E-017, -0.7071067811865561200, -0.7071067811865389100 ) ) ;
#280 = PERSON_AND_ORGANIZATION ( #13, #172 ) ;
ENDSEC;
END-ISO-10303-21;
