ISO-10303-21;
HEADER;
FILE_DESCRIPTION (( 'STEP AP203' ),
    '1' );
FILE_NAME ('Web Model 39243_37703.step',
    '2018-10-15T14:41:05',
    ( '' ),
    ( '' ),
    'SwSTEP 2.0',
    'SolidWorks 2016',
    '' );
FILE_SCHEMA (( 'CONFIG_CONTROL_DESIGN' ));
ENDSEC;

DATA;
#1 = CARTESIAN_POINT ( 'NONE',  ( 0.0000000000000000000, 0.0000000000000000000, 1.000000000000000000 ) ) ;
#2 = AXIS2_PLACEMENT_3D ( 'NONE', #72, #73, #6 ) ;
#3 = EDGE_CURVE ( 'NONE', #146, #85, #108, .T. ) ;
#4 = CARTESIAN_POINT ( 'NONE',  ( 20.00000000000000000, 2.449293598294706500E-015, -1.000000000000000000 ) ) ;
#5 = VERTEX_POINT ( 'NONE', #29 ) ;
#6 = DIRECTION ( 'NONE',  ( -1.000000000000000000, 0.0000000000000000000, 0.0000000000000000000 ) ) ;
#7 = ADVANCED_FACE ( 'NONE', ( #16 ), #148, .F. ) ;
#8 =( NAMED_UNIT ( * ) PLANE_ANGLE_UNIT ( ) SI_UNIT ( $, .RADIAN. ) );
#9 = DATE_TIME_ROLE ( 'creation_date' ) ;
#10 = DATE_AND_TIME ( #49, #43 ) ;
#11 = DATE_AND_TIME ( #22, #14 ) ;
#12 = CC_DESIGN_PERSON_AND_ORGANIZATION_ASSIGNMENT ( #114, #76, ( #67 ) ) ;
#13 = APPROVAL_STATUS ( 'not_yet_approved' ) ;
#14 = LOCAL_TIME ( 10, 41, 5.000000000000000000, #44 ) ;
#15 =( GEOMETRIC_REPRESENTATION_CONTEXT ( 3 ) GLOBAL_UNCERTAINTY_ASSIGNED_CONTEXT ( ( #93 ) ) GLOBAL_UNIT_ASSIGNED_CONTEXT ( ( #90, #8, #38 ) ) REPRESENTATION_CONTEXT ( 'NONE', 'WORKASPACE' ) );
#16 = FACE_OUTER_BOUND ( 'NONE', #55, .T. ) ;
#17 = CARTESIAN_POINT ( 'NONE',  ( 20.00000000000000000, 2.449293598294706500E-015, 1.000000000000000000 ) ) ;
#18 = AXIS2_PLACEMENT_3D ( 'NONE', #34, #138, #56 ) ;
#19 = ORIENTED_EDGE ( 'NONE', *, *, #41, .F. ) ;
#20 = CARTESIAN_POINT ( 'NONE',  ( 20.00000000000000000, 2.449293598294706500E-015, 1.000000000000000000 ) ) ;
#21 = APPROVAL ( #106, 'UNSPECIFIED' ) ;
#22 = CALENDAR_DATE ( 2018, 15, 10 ) ;
#23 = DIRECTION ( 'NONE',  ( -0.0000000000000000000, -0.0000000000000000000, -1.000000000000000000 ) ) ;
#24 = PERSON_AND_ORGANIZATION ( #95, #155 ) ;
#25 = ORIENTED_EDGE ( 'NONE', *, *, #174, .F. ) ;
#26 = VECTOR ( 'NONE', #129, 1000.000000000000000 ) ;
#27 = APPROVAL ( #13, 'UNSPECIFIED' ) ;
#28 = AXIS2_PLACEMENT_3D ( 'NONE', #74, #125, #167 ) ;
#29 = CARTESIAN_POINT ( 'NONE',  ( -20.00000000000000000, 0.0000000000000000000, 1.000000000000000000 ) ) ;
#30 = AXIS2_PLACEMENT_3D ( 'NONE', #59, #143, #154 ) ;
#31 = LINE ( 'NONE', #20, #69 ) ;
#32 = PERSON_AND_ORGANIZATION ( #95, #155 ) ;
#33 = FACE_OUTER_BOUND ( 'NONE', #151, .T. ) ;
#34 = CARTESIAN_POINT ( 'NONE',  ( 0.0000000000000000000, 0.0000000000000000000, -1.000000000000000000 ) ) ;
#35 = DIRECTION ( 'NONE',  ( 0.0000000000000000000, 0.0000000000000000000, 1.000000000000000000 ) ) ;
#36 = AXIS2_PLACEMENT_3D ( 'NONE', #126, #137, #71 ) ;
#37 = DATE_AND_TIME ( #81, #66 ) ;
#38 =( NAMED_UNIT ( * ) SI_UNIT ( $, .STERADIAN. ) SOLID_ANGLE_UNIT ( ) );
#39 = LOCAL_TIME ( 10, 41, 5.000000000000000000, #139 ) ;
#40 = PERSON_AND_ORGANIZATION ( #95, #155 ) ;
#41 = EDGE_CURVE ( 'NONE', #53, #5, #57, .T. ) ;
#42 = APPROVAL_PERSON_ORGANIZATION ( #149, #21, #51 ) ;
#43 = LOCAL_TIME ( 10, 41, 5.000000000000000000, #145 ) ;
#44 = COORDINATED_UNIVERSAL_TIME_OFFSET ( 5, 0, .BEHIND. ) ;
#45 = PRODUCT_RELATED_PRODUCT_CATEGORY ( 'detail', '', ( #67 ) ) ;
#46 = PLANE ( 'NONE',  #30 ) ;
#47 = DESIGN_CONTEXT ( 'detailed design', #144, 'design' ) ;
#48 = MECHANICAL_CONTEXT ( 'NONE', #169, 'mechanical' ) ;
#49 = CALENDAR_DATE ( 2018, 15, 10 ) ;
#50 = ORIENTED_EDGE ( 'NONE', *, *, #3, .T. ) ;
#51 = APPROVAL_ROLE ( '' ) ;
#52 = PRODUCT_DEFINITION ( 'UNKNOWN', '', #140, #47 ) ;
#53 = VERTEX_POINT ( 'NONE', #17 ) ;
#54 = CC_DESIGN_APPROVAL ( #112, ( #52 ) ) ;
#55 = EDGE_LOOP ( 'NONE', ( #82, #172 ) ) ;
#56 = DIRECTION ( 'NONE',  ( 1.000000000000000000, 0.0000000000000000000, 0.0000000000000000000 ) ) ;
#57 = CIRCLE ( 'NONE', #28, 20.00000000000000000 ) ;
#58 = CC_DESIGN_PERSON_AND_ORGANIZATION_ASSIGNMENT ( #32, #116, ( #140 ) ) ;
#59 = CARTESIAN_POINT ( 'NONE',  ( 0.0000000000000000000, 0.0000000000000000000, 1.000000000000000000 ) ) ;
#60 = LINE ( 'NONE', #117, #26 ) ;
#61 = AXIS2_PLACEMENT_3D ( 'NONE', #1, #100, #70 ) ;
#62 = ORIENTED_EDGE ( 'NONE', *, *, #157, .F. ) ;
#63 = APPLICATION_PROTOCOL_DEFINITION ( 'international standard', 'config_control_design', 1994, #144 ) ;
#64 = PERSON_AND_ORGANIZATION ( #95, #155 ) ;
#65 = EDGE_LOOP ( 'NONE', ( #123, #92 ) ) ;
#66 = LOCAL_TIME ( 10, 41, 5.000000000000000000, #134 ) ;
#67 = PRODUCT ( 'Web Model 39243_37703', 'Web Model 39243_37703', '', ( #48 ) ) ;
#68 = PERSON_AND_ORGANIZATION ( #95, #155 ) ;
#69 = VECTOR ( 'NONE', #23, 1000.000000000000000 ) ;
#70 = DIRECTION ( 'NONE',  ( 1.000000000000000000, 0.0000000000000000000, 0.0000000000000000000 ) ) ;
#71 = DIRECTION ( 'NONE',  ( -1.000000000000000000, 0.0000000000000000000, 0.0000000000000000000 ) ) ;
#72 = CARTESIAN_POINT ( 'NONE',  ( 0.0000000000000000000, 0.0000000000000000000, 1.000000000000000000 ) ) ;
#73 = DIRECTION ( 'NONE',  ( -0.0000000000000000000, -0.0000000000000000000, -1.000000000000000000 ) ) ;
#74 = CARTESIAN_POINT ( 'NONE',  ( 0.0000000000000000000, 0.0000000000000000000, 1.000000000000000000 ) ) ;
#75 = APPROVAL_ROLE ( '' ) ;
#76 = PERSON_AND_ORGANIZATION_ROLE ( 'design_owner' ) ;
#77 = CC_DESIGN_PERSON_AND_ORGANIZATION_ASSIGNMENT ( #86, #131, ( #52 ) ) ;
#78 = APPROVAL_STATUS ( 'not_yet_approved' ) ;
#79 = LOCAL_TIME ( 10, 41, 5.000000000000000000, #89 ) ;
#80 = PERSON_AND_ORGANIZATION_ROLE ( 'design_supplier' ) ;
#81 = CALENDAR_DATE ( 2018, 15, 10 ) ;
#82 = ORIENTED_EDGE ( 'NONE', *, *, #119, .F. ) ;
#83 = CARTESIAN_POINT ( 'NONE',  ( 0.0000000000000000000, 0.0000000000000000000, -1.000000000000000000 ) ) ;
#84 = APPROVAL_DATE_TIME ( #37, #27 ) ;
#85 = VERTEX_POINT ( 'NONE', #87 ) ;
#86 = PERSON_AND_ORGANIZATION ( #95, #155 ) ;
#87 = CARTESIAN_POINT ( 'NONE',  ( -20.00000000000000000, 0.0000000000000000000, -1.000000000000000000 ) ) ;
#88 = APPROVAL_ROLE ( '' ) ;
#89 = COORDINATED_UNIVERSAL_TIME_OFFSET ( 5, 0, .BEHIND. ) ;
#90 =( LENGTH_UNIT ( ) NAMED_UNIT ( * ) SI_UNIT ( .MILLI., .METRE. ) );
#91 = SECURITY_CLASSIFICATION_LEVEL ( 'unclassified' ) ;
#92 = ORIENTED_EDGE ( 'NONE', *, *, #41, .T. ) ;
#93 = UNCERTAINTY_MEASURE_WITH_UNIT (LENGTH_MEASURE( 1.000000000000000100E-005 ), #90, 'distance_accuracy_value', 'NONE');
#94 = DIRECTION ( 'NONE',  ( 0.0000000000000000000, 0.0000000000000000000, 1.000000000000000000 ) ) ;
#95 = PERSON ( 'UNSPECIFIED', 'UNSPECIFIED', 'UNSPECIFIED', ('UNSPECIFIED'), ('UNSPECIFIED'), ('UNSPECIFIED') ) ;
#96 = CALENDAR_DATE ( 2018, 15, 10 ) ;
#97 = ORIENTED_EDGE ( 'NONE', *, *, #107, .F. ) ;
#98 = ORIENTED_EDGE ( 'NONE', *, *, #119, .T. ) ;
#99 = CC_DESIGN_APPROVAL ( #21, ( #140 ) ) ;
#100 = DIRECTION ( 'NONE',  ( 0.0000000000000000000, 0.0000000000000000000, 1.000000000000000000 ) ) ;
#101 = EDGE_LOOP ( 'NONE', ( #19, #166, #50, #25 ) ) ;
#102 = DATE_AND_TIME ( #96, #39 ) ;
#103 = DATE_TIME_ROLE ( 'classification_date' ) ;
#104 = DIRECTION ( 'NONE',  ( 0.0000000000000000000, 0.0000000000000000000, 1.000000000000000000 ) ) ;
#105 = ADVANCED_FACE ( 'NONE', ( #33 ), #160, .T. ) ;
#106 = APPROVAL_STATUS ( 'not_yet_approved' ) ;
#107 = EDGE_CURVE ( 'NONE', #5, #53, #115, .T. ) ;
#108 = CIRCLE ( 'NONE', #165, 20.00000000000000000 ) ;
#109 = ADVANCED_FACE ( 'NONE', ( #153 ), #163, .T. ) ;
#110 = PRODUCT_DEFINITION_SHAPE ( 'NONE', 'NONE',  #52 ) ;
#111 = CC_DESIGN_PERSON_AND_ORGANIZATION_ASSIGNMENT ( #64, #127, ( #147 ) ) ;
#112 = APPROVAL ( #78, 'UNSPECIFIED' ) ;
#113 = APPROVAL_PERSON_ORGANIZATION ( #40, #27, #75 ) ;
#114 = PERSON_AND_ORGANIZATION ( #95, #155 ) ;
#115 = CIRCLE ( 'NONE', #61, 20.00000000000000000 ) ;
#116 = PERSON_AND_ORGANIZATION_ROLE ( 'creator' ) ;
#117 = CARTESIAN_POINT ( 'NONE',  ( -20.00000000000000000, 0.0000000000000000000, 1.000000000000000000 ) ) ;
#118 = APPLICATION_PROTOCOL_DEFINITION ( 'international standard', 'config_control_design', 1994, #169 ) ;
#119 = EDGE_CURVE ( 'NONE', #85, #146, #142, .T. ) ;
#120 = DATE_AND_TIME ( #175, #79 ) ;
#121 = DIRECTION ( 'NONE',  ( 1.000000000000000000, 0.0000000000000000000, 0.0000000000000000000 ) ) ;
#122 = SHAPE_DEFINITION_REPRESENTATION ( #110, #130 ) ;
#123 = ORIENTED_EDGE ( 'NONE', *, *, #107, .T. ) ;
#124 = APPROVAL_DATE_TIME ( #120, #112 ) ;
#125 = DIRECTION ( 'NONE',  ( 0.0000000000000000000, 0.0000000000000000000, 1.000000000000000000 ) ) ;
#126 = CARTESIAN_POINT ( 'NONE',  ( 0.0000000000000000000, 0.0000000000000000000, 1.000000000000000000 ) ) ;
#127 = PERSON_AND_ORGANIZATION_ROLE ( 'classification_officer' ) ;
#128 = ORIENTED_EDGE ( 'NONE', *, *, #174, .T. ) ;
#129 = DIRECTION ( 'NONE',  ( -0.0000000000000000000, -0.0000000000000000000, -1.000000000000000000 ) ) ;
#130 = ADVANCED_BREP_SHAPE_REPRESENTATION ( 'Web Model 39243_37703', ( #161, #164 ), #15 ) ;
#131 = PERSON_AND_ORGANIZATION_ROLE ( 'creator' ) ;
#132 = FACE_OUTER_BOUND ( 'NONE', #65, .T. ) ;
#133 = APPROVAL_DATE_TIME ( #10, #21 ) ;
#134 = COORDINATED_UNIVERSAL_TIME_OFFSET ( 5, 0, .BEHIND. ) ;
#135 = CLOSED_SHELL ( 'NONE', ( #109, #105, #171, #7 ) ) ;
#136 = AXIS2_PLACEMENT_3D ( 'NONE', #150, #35, #141 ) ;
#137 = DIRECTION ( 'NONE',  ( -0.0000000000000000000, -0.0000000000000000000, -1.000000000000000000 ) ) ;
#138 = DIRECTION ( 'NONE',  ( 0.0000000000000000000, 0.0000000000000000000, 1.000000000000000000 ) ) ;
#139 = COORDINATED_UNIVERSAL_TIME_OFFSET ( 5, 0, .BEHIND. ) ;
#140 = PRODUCT_DEFINITION_FORMATION_WITH_SPECIFIED_SOURCE ( 'ANY', '', #67, .NOT_KNOWN. ) ;
#141 = DIRECTION ( 'NONE',  ( 1.000000000000000000, 0.0000000000000000000, -0.0000000000000000000 ) ) ;
#142 = CIRCLE ( 'NONE', #18, 20.00000000000000000 ) ;
#143 = DIRECTION ( 'NONE',  ( 0.0000000000000000000, 0.0000000000000000000, 1.000000000000000000 ) ) ;
#144 = APPLICATION_CONTEXT ( 'configuration controlled 3d designs of mechanical parts and assemblies' ) ;
#145 = COORDINATED_UNIVERSAL_TIME_OFFSET ( 5, 0, .BEHIND. ) ;
#146 = VERTEX_POINT ( 'NONE', #4 ) ;
#147 = SECURITY_CLASSIFICATION ( '', '', #91 ) ;
#148 = PLANE ( 'NONE',  #136 ) ;
#149 = PERSON_AND_ORGANIZATION ( #95, #155 ) ;
#150 = CARTESIAN_POINT ( 'NONE',  ( 0.0000000000000000000, 0.0000000000000000000, -1.000000000000000000 ) ) ;
#151 = EDGE_LOOP ( 'NONE', ( #62, #97, #128, #98 ) ) ;
#152 = CC_DESIGN_SECURITY_CLASSIFICATION ( #147, ( #140 ) ) ;
#153 = FACE_OUTER_BOUND ( 'NONE', #101, .T. ) ;
#154 = DIRECTION ( 'NONE',  ( 1.000000000000000000, 0.0000000000000000000, -0.0000000000000000000 ) ) ;
#155 = ORGANIZATION ( 'UNSPECIFIED', 'UNSPECIFIED', '' ) ;
#156 = CC_DESIGN_PERSON_AND_ORGANIZATION_ASSIGNMENT ( #68, #80, ( #140 ) ) ;
#157 = EDGE_CURVE ( 'NONE', #53, #146, #31, .T. ) ;
#158 = APPROVAL_PERSON_ORGANIZATION ( #24, #112, #88 ) ;
#159 = CC_DESIGN_DATE_AND_TIME_ASSIGNMENT ( #102, #103, ( #147 ) ) ;
#160 = CYLINDRICAL_SURFACE ( 'NONE', #2, 20.00000000000000000 ) ;
#161 = MANIFOLD_SOLID_BREP ( 'Boss-Extrude1', #135 ) ;
#162 = DIRECTION ( 'NONE',  ( 1.000000000000000000, 0.0000000000000000000, 0.0000000000000000000 ) ) ;
#163 = CYLINDRICAL_SURFACE ( 'NONE', #36, 20.00000000000000000 ) ;
#164 = AXIS2_PLACEMENT_3D ( 'NONE', #168, #104, #121 ) ;
#165 = AXIS2_PLACEMENT_3D ( 'NONE', #83, #94, #162 ) ;
#166 = ORIENTED_EDGE ( 'NONE', *, *, #157, .T. ) ;
#167 = DIRECTION ( 'NONE',  ( 1.000000000000000000, 0.0000000000000000000, 0.0000000000000000000 ) ) ;
#168 = CARTESIAN_POINT ( 'NONE',  ( 0.0000000000000000000, 0.0000000000000000000, 0.0000000000000000000 ) ) ;
#169 = APPLICATION_CONTEXT ( 'configuration controlled 3d designs of mechanical parts and assemblies' ) ;
#170 = CC_DESIGN_APPROVAL ( #27, ( #147 ) ) ;
#171 = ADVANCED_FACE ( 'NONE', ( #132 ), #46, .T. ) ;
#172 = ORIENTED_EDGE ( 'NONE', *, *, #3, .F. ) ;
#173 = CC_DESIGN_DATE_AND_TIME_ASSIGNMENT ( #11, #9, ( #52 ) ) ;
#174 = EDGE_CURVE ( 'NONE', #5, #85, #60, .T. ) ;
#175 = CALENDAR_DATE ( 2018, 15, 10 ) ;
ENDSEC;
END-ISO-10303-21;
