ISO-10303-21;
HEADER;
FILE_DESCRIPTION (( 'STEP AP203' ),
    '1' );
FILE_NAME ('Web Model 55257MX_15756.step',
    '2020-10-19T17:08:21',
    ( '' ),
    ( '' ),
    'SwSTEP 2.0',
    'SolidWorks 2018',
    '' );
FILE_SCHEMA (( 'CONFIG_CONTROL_DESIGN' ));
ENDSEC;

DATA;
#1 = VECTOR ( 'NONE', #181, 1000.000000000000000 ) ;
#2 = DIRECTION ( 'NONE',  ( 1.156482317317871478E-16, -1.000000000000000000, 0.0000000000000000000 ) ) ;
#3 = PLANE ( 'NONE',  #235 ) ;
#4 = CARTESIAN_POINT ( 'NONE',  ( -15.00000000000000000, -15.00000000000000355, 3.000000000000000000 ) ) ;
#5 = DIRECTION ( 'NONE',  ( 0.0000000000000000000, 1.000000000000000000, 0.0000000000000000000 ) ) ;
#6 = CC_DESIGN_DATE_AND_TIME_ASSIGNMENT ( #197, #49, ( #56 ) ) ;
#7 = DIRECTION ( 'NONE',  ( 1.000000000000000000, 0.0000000000000000000, -0.0000000000000000000 ) ) ;
#8 = LOCAL_TIME ( 13, 8, 21.00000000000000000, #105 ) ;
#9 = LINE ( 'NONE', #48, #194 ) ;
#10 = CARTESIAN_POINT ( 'NONE',  ( 15.00000000000000355, -15.00000000000000000, 3.000000000000000000 ) ) ;
#11 = APPLICATION_PROTOCOL_DEFINITION ( 'international standard', 'config_control_design', 1994, #115 ) ;
#12 = LINE ( 'NONE', #44, #195 ) ;
#13 = DATE_AND_TIME ( #88, #8 ) ;
#14 = SECURITY_CLASSIFICATION_LEVEL ( 'unclassified' ) ;
#15 = LINE ( 'NONE', #10, #234 ) ;
#16 = EDGE_LOOP ( 'NONE', ( #119, #77, #76, #227 ) ) ;
#17 = PERSON_AND_ORGANIZATION_ROLE ( 'creator' ) ;
#18 = CALENDAR_DATE ( 2020, 19, 10 ) ;
#19 =( GEOMETRIC_REPRESENTATION_CONTEXT ( 3 ) GLOBAL_UNCERTAINTY_ASSIGNED_CONTEXT ( ( #130 ) ) GLOBAL_UNIT_ASSIGNED_CONTEXT ( ( #231, #187, #230 ) ) REPRESENTATION_CONTEXT ( 'NONE', 'WORKASPACE' ) );
#20 = EDGE_CURVE ( 'NONE', #122, #211, #150, .T. ) ;
#21 = ORIENTED_EDGE ( 'NONE', *, *, #20, .F. ) ;
#22 = PERSON_AND_ORGANIZATION ( #132, #61 ) ;
#23 = ORIENTED_EDGE ( 'NONE', *, *, #123, .F. ) ;
#24 = VECTOR ( 'NONE', #42, 1000.000000000000000 ) ;
#25 = VERTEX_POINT ( 'NONE', #202 ) ;
#26 = PLANE ( 'NONE',  #52 ) ;
#27 = PLANE ( 'NONE',  #196 ) ;
#28 = DIRECTION ( 'NONE',  ( -1.000000000000000000, -1.156482317317871478E-16, 0.0000000000000000000 ) ) ;
#29 = DIRECTION ( 'NONE',  ( -1.000000000000000000, -1.156482317317871478E-16, 0.0000000000000000000 ) ) ;
#30 = APPROVAL ( #141, 'UNSPECIFIED' ) ;
#31 = DATE_AND_TIME ( #121, #171 ) ;
#32 = PERSON_AND_ORGANIZATION_ROLE ( 'creator' ) ;
#33 = APPROVAL_ROLE ( '' ) ;
#34 = ADVANCED_FACE ( 'NONE', ( #176 ), #74, .F. ) ;
#35 = FACE_OUTER_BOUND ( 'NONE', #16, .T. ) ;
#36 = AXIS2_PLACEMENT_3D ( 'NONE', #79, #46, #94 ) ;
#37 = APPROVAL_PERSON_ORGANIZATION ( #163, #69, #160 ) ;
#38 = VECTOR ( 'NONE', #64, 1000.000000000000000 ) ;
#39 = ADVANCED_BREP_SHAPE_REPRESENTATION ( 'Web Model 55257MX_15756', ( #148, #57 ), #19 ) ;
#40 = CARTESIAN_POINT ( 'NONE',  ( 15.00000000000000355, 15.00000000000000178, 3.000000000000000000 ) ) ;
#41 = VECTOR ( 'NONE', #78, 1000.000000000000000 ) ;
#42 = DIRECTION ( 'NONE',  ( -0.0000000000000000000, -0.0000000000000000000, -1.000000000000000000 ) ) ;
#43 = CARTESIAN_POINT ( 'NONE',  ( 15.00000000000000355, 15.00000000000000178, 3.000000000000000000 ) ) ;
#44 = CARTESIAN_POINT ( 'NONE',  ( 15.00000000000000355, -15.00000000000000000, -3.000000000000000000 ) ) ;
#45 = DIRECTION ( 'NONE',  ( 1.000000000000000000, 1.156482317317871478E-16, -0.0000000000000000000 ) ) ;
#46 = DIRECTION ( 'NONE',  ( 1.000000000000000000, 0.0000000000000000000, 0.0000000000000000000 ) ) ;
#47 = COORDINATED_UNIVERSAL_TIME_OFFSET ( 5, 0, .BEHIND. ) ;
#48 = CARTESIAN_POINT ( 'NONE',  ( 15.00000000000000355, -15.00000000000000000, 3.000000000000000000 ) ) ;
#49 = DATE_TIME_ROLE ( 'creation_date' ) ;
#50 = DIRECTION ( 'NONE',  ( 0.0000000000000000000, 0.0000000000000000000, 1.000000000000000000 ) ) ;
#51 = FACE_OUTER_BOUND ( 'NONE', #159, .T. ) ;
#52 = AXIS2_PLACEMENT_3D ( 'NONE', #40, #2, #58 ) ;
#53 = CALENDAR_DATE ( 2020, 19, 10 ) ;
#54 = ORIENTED_EDGE ( 'NONE', *, *, #123, .T. ) ;
#55 = ADVANCED_FACE ( 'NONE', ( #35 ), #26, .F. ) ;
#56 = PRODUCT_DEFINITION ( 'UNKNOWN', '', #209, #198 ) ;
#57 = AXIS2_PLACEMENT_3D ( 'NONE', #157, #50, #188 ) ;
#58 = DIRECTION ( 'NONE',  ( 1.000000000000000000, 1.156482317317871478E-16, 0.0000000000000000000 ) ) ;
#59 = VERTEX_POINT ( 'NONE', #129 ) ;
#60 = FACE_OUTER_BOUND ( 'NONE', #83, .T. ) ;
#61 = ORGANIZATION ( 'UNSPECIFIED', 'UNSPECIFIED', '' ) ;
#62 = VERTEX_POINT ( 'NONE', #43 ) ;
#63 = CARTESIAN_POINT ( 'NONE',  ( -15.00000000000000000, -15.00000000000000355, -3.000000000000000000 ) ) ;
#64 = DIRECTION ( 'NONE',  ( -0.0000000000000000000, -1.000000000000000000, -0.0000000000000000000 ) ) ;
#65 = CARTESIAN_POINT ( 'NONE',  ( -15.00000000000000000, -15.00000000000000355, 3.000000000000000000 ) ) ;
#66 = VECTOR ( 'NONE', #221, 1000.000000000000000 ) ;
#67 = APPROVAL_PERSON_ORGANIZATION ( #137, #30, #33 ) ;
#68 = PERSON_AND_ORGANIZATION_ROLE ( 'classification_officer' ) ;
#69 = APPROVAL ( #140, 'UNSPECIFIED' ) ;
#70 = VERTEX_POINT ( 'NONE', #147 ) ;
#71 = CC_DESIGN_PERSON_AND_ORGANIZATION_ASSIGNMENT ( #22, #191, ( #72 ) ) ;
#72 = PRODUCT ( 'Web Model 55257MX_15756', 'Web Model 55257MX_15756', '', ( #138 ) ) ;
#73 = PERSON_AND_ORGANIZATION ( #132, #61 ) ;
#74 = PLANE ( 'NONE',  #103 ) ;
#75 = EDGE_CURVE ( 'NONE', #102, #59, #114, .T. ) ;
#76 = ORIENTED_EDGE ( 'NONE', *, *, #212, .F. ) ;
#77 = ORIENTED_EDGE ( 'NONE', *, *, #201, .F. ) ;
#78 = DIRECTION ( 'NONE',  ( 0.0000000000000000000, 1.000000000000000000, 0.0000000000000000000 ) ) ;
#79 = CARTESIAN_POINT ( 'NONE',  ( -15.00000000000000000, -15.00000000000000355, 3.000000000000000000 ) ) ;
#80 = PRODUCT_RELATED_PRODUCT_CATEGORY ( 'detail', '', ( #72 ) ) ;
#81 = LOCAL_TIME ( 13, 8, 21.00000000000000000, #145 ) ;
#82 = ORIENTED_EDGE ( 'NONE', *, *, #177, .F. ) ;
#83 = EDGE_LOOP ( 'NONE', ( #87, #111, #21, #222 ) ) ;
#84 = CC_DESIGN_DATE_AND_TIME_ASSIGNMENT ( #90, #228, ( #225 ) ) ;
#85 = APPROVAL_DATE_TIME ( #165, #69 ) ;
#86 = EDGE_CURVE ( 'NONE', #102, #62, #9, .T. ) ;
#87 = ORIENTED_EDGE ( 'NONE', *, *, #126, .T. ) ;
#88 = CALENDAR_DATE ( 2020, 19, 10 ) ;
#89 = DIRECTION ( 'NONE',  ( -1.000000000000000000, 0.0000000000000000000, 0.0000000000000000000 ) ) ;
#90 = DATE_AND_TIME ( #182, #107 ) ;
#91 = PRODUCT_DEFINITION_SHAPE ( 'NONE', 'NONE',  #56 ) ;
#92 = PLANE ( 'NONE',  #183 ) ;
#93 = CC_DESIGN_PERSON_AND_ORGANIZATION_ASSIGNMENT ( #233, #32, ( #209 ) ) ;
#94 = DIRECTION ( 'NONE',  ( 0.0000000000000000000, 0.0000000000000000000, -1.000000000000000000 ) ) ;
#95 = COORDINATED_UNIVERSAL_TIME_OFFSET ( 5, 0, .BEHIND. ) ;
#96 = DIRECTION ( 'NONE',  ( 0.0000000000000000000, -0.0000000000000000000, 1.000000000000000000 ) ) ;
#97 = VECTOR ( 'NONE', #135, 1000.000000000000000 ) ;
#98 = EDGE_CURVE ( 'NONE', #211, #173, #146, .T. ) ;
#99 = LINE ( 'NONE', #109, #203 ) ;
#100 = ORIENTED_EDGE ( 'NONE', *, *, #86, .F. ) ;
#101 = VECTOR ( 'NONE', #170, 1000.000000000000000 ) ;
#102 = VERTEX_POINT ( 'NONE', #205 ) ;
#103 = AXIS2_PLACEMENT_3D ( 'NONE', #131, #89, #218 ) ;
#104 = CC_DESIGN_SECURITY_CLASSIFICATION ( #225, ( #209 ) ) ;
#105 = COORDINATED_UNIVERSAL_TIME_OFFSET ( 5, 0, .BEHIND. ) ;
#106 = ORIENTED_EDGE ( 'NONE', *, *, #212, .T. ) ;
#107 = LOCAL_TIME ( 13, 8, 21.00000000000000000, #95 ) ;
#108 = CARTESIAN_POINT ( 'NONE',  ( 15.00000000000000355, 15.00000000000000178, -3.000000000000000000 ) ) ;
#109 = CARTESIAN_POINT ( 'NONE',  ( 15.00000000000000355, 15.00000000000000178, 3.000000000000000000 ) ) ;
#110 = PERSON_AND_ORGANIZATION ( #132, #61 ) ;
#111 = ORIENTED_EDGE ( 'NONE', *, *, #98, .F. ) ;
#112 = CARTESIAN_POINT ( 'NONE',  ( 15.00000000000000355, -15.00000000000000000, -3.000000000000000000 ) ) ;
#113 = DIRECTION ( 'NONE',  ( 0.0000000000000000000, -0.0000000000000000000, 1.000000000000000000 ) ) ;
#114 = LINE ( 'NONE', #149, #24 ) ;
#115 = APPLICATION_CONTEXT ( 'configuration controlled 3d designs of mechanical parts and assemblies' ) ;
#116 = CC_DESIGN_APPROVAL ( #69, ( #209 ) ) ;
#117 = APPLICATION_PROTOCOL_DEFINITION ( 'international standard', 'config_control_design', 1994, #155 ) ;
#118 = APPROVAL_ROLE ( '' ) ;
#119 = ORIENTED_EDGE ( 'NONE', *, *, #177, .T. ) ;
#120 = LINE ( 'NONE', #108, #189 ) ;
#121 = CALENDAR_DATE ( 2020, 19, 10 ) ;
#122 = VERTEX_POINT ( 'NONE', #154 ) ;
#123 = EDGE_CURVE ( 'NONE', #211, #102, #15, .T. ) ;
#124 = EDGE_LOOP ( 'NONE', ( #214, #82, #179, #208 ) ) ;
#125 = EDGE_CURVE ( 'NONE', #59, #70, #143, .T. ) ;
#126 = EDGE_CURVE ( 'NONE', #25, #173, #180, .T. ) ;
#127 = APPROVAL_DATE_TIME ( #13, #169 ) ;
#128 = ORIENTED_EDGE ( 'NONE', *, *, #20, .T. ) ;
#129 = CARTESIAN_POINT ( 'NONE',  ( 15.00000000000000355, -15.00000000000000000, -3.000000000000000000 ) ) ;
#130 = UNCERTAINTY_MEASURE_WITH_UNIT (LENGTH_MEASURE( 1.000000000000000082E-05 ), #231, 'distance_accuracy_value', 'NONE');
#131 = CARTESIAN_POINT ( 'NONE',  ( 15.00000000000000355, -15.00000000000000000, 3.000000000000000000 ) ) ;
#132 = PERSON ( 'UNSPECIFIED', 'UNSPECIFIED', 'UNSPECIFIED', ('UNSPECIFIED'), ('UNSPECIFIED'), ('UNSPECIFIED') ) ;
#133 = CARTESIAN_POINT ( 'NONE',  ( -15.00000000000000000, -15.00000000000000355, -3.000000000000000000 ) ) ;
#134 = ORIENTED_EDGE ( 'NONE', *, *, #86, .T. ) ;
#135 = DIRECTION ( 'NONE',  ( -0.0000000000000000000, -0.0000000000000000000, -1.000000000000000000 ) ) ;
#136 = CARTESIAN_POINT ( 'NONE',  ( 0.0000000000000000000, 0.0000000000000000000, -3.000000000000000000 ) ) ;
#137 = PERSON_AND_ORGANIZATION ( #132, #61 ) ;
#138 = MECHANICAL_CONTEXT ( 'NONE', #115, 'mechanical' ) ;
#139 = CC_DESIGN_APPROVAL ( #30, ( #225 ) ) ;
#140 = APPROVAL_STATUS ( 'not_yet_approved' ) ;
#141 = APPROVAL_STATUS ( 'not_yet_approved' ) ;
#142 = COORDINATED_UNIVERSAL_TIME_OFFSET ( 5, 0, .BEHIND. ) ;
#143 = LINE ( 'NONE', #112, #41 ) ;
#144 = LINE ( 'NONE', #185, #66 ) ;
#145 = COORDINATED_UNIVERSAL_TIME_OFFSET ( 5, 0, .BEHIND. ) ;
#146 = LINE ( 'NONE', #4, #97 ) ;
#147 = CARTESIAN_POINT ( 'NONE',  ( 15.00000000000000355, 15.00000000000000178, -3.000000000000000000 ) ) ;
#148 = MANIFOLD_SOLID_BREP ( 'Boss-Extrude1', #190 ) ;
#149 = CARTESIAN_POINT ( 'NONE',  ( 15.00000000000000355, -15.00000000000000000, 3.000000000000000000 ) ) ;
#150 = LINE ( 'NONE', #200, #1 ) ;
#151 = CARTESIAN_POINT ( 'NONE',  ( 0.0000000000000000000, 0.0000000000000000000, 3.000000000000000000 ) ) ;
#152 = DIRECTION ( 'NONE',  ( 1.000000000000000000, 0.0000000000000000000, -0.0000000000000000000 ) ) ;
#153 = FACE_OUTER_BOUND ( 'NONE', #124, .T. ) ;
#154 = CARTESIAN_POINT ( 'NONE',  ( -15.00000000000000000, 14.99999999999999822, 3.000000000000000000 ) ) ;
#155 = APPLICATION_CONTEXT ( 'configuration controlled 3d designs of mechanical parts and assemblies' ) ;
#156 = LINE ( 'NONE', #186, #101 ) ;
#157 = CARTESIAN_POINT ( 'NONE',  ( 0.0000000000000000000, 0.0000000000000000000, 0.0000000000000000000 ) ) ;
#158 = APPROVAL_DATE_TIME ( #31, #30 ) ;
#159 = EDGE_LOOP ( 'NONE', ( #168, #172, #23, #164 ) ) ;
#160 = APPROVAL_ROLE ( '' ) ;
#161 = ADVANCED_FACE ( 'NONE', ( #153 ), #92, .F. ) ;
#162 = ORIENTED_EDGE ( 'NONE', *, *, #75, .T. ) ;
#163 = PERSON_AND_ORGANIZATION ( #132, #61 ) ;
#164 = ORIENTED_EDGE ( 'NONE', *, *, #98, .T. ) ;
#165 = DATE_AND_TIME ( #18, #184 ) ;
#166 = EDGE_LOOP ( 'NONE', ( #207, #217, #100, #162 ) ) ;
#167 = PLANE ( 'NONE',  #36 ) ;
#168 = ORIENTED_EDGE ( 'NONE', *, *, #226, .T. ) ;
#169 = APPROVAL ( #213, 'UNSPECIFIED' ) ;
#170 = DIRECTION ( 'NONE',  ( -1.000000000000000000, -1.156482317317871478E-16, 0.0000000000000000000 ) ) ;
#171 = LOCAL_TIME ( 13, 8, 21.00000000000000000, #142 ) ;
#172 = ORIENTED_EDGE ( 'NONE', *, *, #75, .F. ) ;
#173 = VERTEX_POINT ( 'NONE', #133 ) ;
#174 = CC_DESIGN_PERSON_AND_ORGANIZATION_ASSIGNMENT ( #110, #175, ( #209 ) ) ;
#175 = PERSON_AND_ORGANIZATION_ROLE ( 'design_supplier' ) ;
#176 = FACE_OUTER_BOUND ( 'NONE', #166, .T. ) ;
#177 = EDGE_CURVE ( 'NONE', #70, #25, #120, .T. ) ;
#178 = PERSON_AND_ORGANIZATION ( #132, #61 ) ;
#179 = ORIENTED_EDGE ( 'NONE', *, *, #125, .F. ) ;
#180 = LINE ( 'NONE', #63, #38 ) ;
#181 = DIRECTION ( 'NONE',  ( -0.0000000000000000000, -1.000000000000000000, -0.0000000000000000000 ) ) ;
#182 = CALENDAR_DATE ( 2020, 19, 10 ) ;
#183 = AXIS2_PLACEMENT_3D ( 'NONE', #136, #113, #7 ) ;
#184 = LOCAL_TIME ( 13, 8, 21.00000000000000000, #47 ) ;
#185 = CARTESIAN_POINT ( 'NONE',  ( -15.00000000000000000, 14.99999999999999822, 3.000000000000000000 ) ) ;
#186 = CARTESIAN_POINT ( 'NONE',  ( 15.00000000000000355, 15.00000000000000178, 3.000000000000000000 ) ) ;
#187 =( NAMED_UNIT ( * ) PLANE_ANGLE_UNIT ( ) SI_UNIT ( $, .RADIAN. ) );
#188 = DIRECTION ( 'NONE',  ( 1.000000000000000000, 0.0000000000000000000, 0.0000000000000000000 ) ) ;
#189 = VECTOR ( 'NONE', #28, 1000.000000000000000 ) ;
#190 = CLOSED_SHELL ( 'NONE', ( #229, #193, #34, #55, #210, #161 ) ) ;
#191 = PERSON_AND_ORGANIZATION_ROLE ( 'design_owner' ) ;
#192 = APPROVAL_PERSON_ORGANIZATION ( #178, #169, #118 ) ;
#193 = ADVANCED_FACE ( 'NONE', ( #51 ), #27, .F. ) ;
#194 = VECTOR ( 'NONE', #5, 1000.000000000000000 ) ;
#195 = VECTOR ( 'NONE', #45, 1000.000000000000000 ) ;
#196 = AXIS2_PLACEMENT_3D ( 'NONE', #224, #223, #29 ) ;
#197 = DATE_AND_TIME ( #53, #81 ) ;
#198 = DESIGN_CONTEXT ( 'detailed design', #155, 'design' ) ;
#199 = EDGE_LOOP ( 'NONE', ( #128, #54, #134, #106 ) ) ;
#200 = CARTESIAN_POINT ( 'NONE',  ( -15.00000000000000000, -15.00000000000000355, 3.000000000000000000 ) ) ;
#201 = EDGE_CURVE ( 'NONE', #122, #25, #144, .T. ) ;
#202 = CARTESIAN_POINT ( 'NONE',  ( -15.00000000000000000, 14.99999999999999822, -3.000000000000000000 ) ) ;
#203 = VECTOR ( 'NONE', #206, 1000.000000000000000 ) ;
#204 = SHAPE_DEFINITION_REPRESENTATION ( #91, #39 ) ;
#205 = CARTESIAN_POINT ( 'NONE',  ( 15.00000000000000355, -15.00000000000000000, 3.000000000000000000 ) ) ;
#206 = DIRECTION ( 'NONE',  ( -0.0000000000000000000, -0.0000000000000000000, -1.000000000000000000 ) ) ;
#207 = ORIENTED_EDGE ( 'NONE', *, *, #125, .T. ) ;
#208 = ORIENTED_EDGE ( 'NONE', *, *, #226, .F. ) ;
#209 = PRODUCT_DEFINITION_FORMATION_WITH_SPECIFIED_SOURCE ( 'ANY', '', #72, .NOT_KNOWN. ) ;
#210 = ADVANCED_FACE ( 'NONE', ( #236 ), #3, .T. ) ;
#211 = VERTEX_POINT ( 'NONE', #65 ) ;
#212 = EDGE_CURVE ( 'NONE', #62, #122, #156, .T. ) ;
#213 = APPROVAL_STATUS ( 'not_yet_approved' ) ;
#214 = ORIENTED_EDGE ( 'NONE', *, *, #126, .F. ) ;
#215 = CC_DESIGN_APPROVAL ( #169, ( #56 ) ) ;
#216 = EDGE_CURVE ( 'NONE', #62, #70, #99, .T. ) ;
#217 = ORIENTED_EDGE ( 'NONE', *, *, #216, .F. ) ;
#218 = DIRECTION ( 'NONE',  ( 0.0000000000000000000, 0.0000000000000000000, 1.000000000000000000 ) ) ;
#219 = CC_DESIGN_PERSON_AND_ORGANIZATION_ASSIGNMENT ( #237, #68, ( #225 ) ) ;
#220 = DIRECTION ( 'NONE',  ( 1.000000000000000000, 1.156482317317871478E-16, -0.0000000000000000000 ) ) ;
#221 = DIRECTION ( 'NONE',  ( -0.0000000000000000000, -0.0000000000000000000, -1.000000000000000000 ) ) ;
#222 = ORIENTED_EDGE ( 'NONE', *, *, #201, .T. ) ;
#223 = DIRECTION ( 'NONE',  ( -1.156482317317871478E-16, 1.000000000000000000, 0.0000000000000000000 ) ) ;
#224 = CARTESIAN_POINT ( 'NONE',  ( 15.00000000000000355, -15.00000000000000000, 3.000000000000000000 ) ) ;
#225 = SECURITY_CLASSIFICATION ( '', '', #14 ) ;
#226 = EDGE_CURVE ( 'NONE', #173, #59, #12, .T. ) ;
#227 = ORIENTED_EDGE ( 'NONE', *, *, #216, .T. ) ;
#228 = DATE_TIME_ROLE ( 'classification_date' ) ;
#229 = ADVANCED_FACE ( 'NONE', ( #60 ), #167, .F. ) ;
#230 =( NAMED_UNIT ( * ) SI_UNIT ( $, .STERADIAN. ) SOLID_ANGLE_UNIT ( ) );
#231 =( LENGTH_UNIT ( ) NAMED_UNIT ( * ) SI_UNIT ( .MILLI., .METRE. ) );
#232 = CC_DESIGN_PERSON_AND_ORGANIZATION_ASSIGNMENT ( #73, #17, ( #56 ) ) ;
#233 = PERSON_AND_ORGANIZATION ( #132, #61 ) ;
#234 = VECTOR ( 'NONE', #220, 1000.000000000000000 ) ;
#235 = AXIS2_PLACEMENT_3D ( 'NONE', #151, #96, #152 ) ;
#236 = FACE_OUTER_BOUND ( 'NONE', #199, .T. ) ;
#237 = PERSON_AND_ORGANIZATION ( #132, #61 ) ;
ENDSEC;
END-ISO-10303-21;
