ISO-10303-21;
HEADER;
FILE_DESCRIPTION (( 'STEP AP203' ),
    '1' );
FILE_NAME ('Web Model 55134_Default.step',
    '2019-10-28T12:51:55',
    ( '' ),
    ( '' ),
    'SwSTEP 2.0',
    'SolidWorks 2018',
    '' );
FILE_SCHEMA (( 'CONFIG_CONTROL_DESIGN' ));
ENDSEC;

DATA;
#1 = CARTESIAN_POINT ( 'NONE',  ( 4.336808689942017736E-16, 10.97196784270047054, -4.400000000000000355 ) ) ;
#2 = FACE_OUTER_BOUND ( 'NONE', #292, .T. ) ;
#3 = CARTESIAN_POINT ( 'NONE',  ( -2.405800382647001801, 11.42640274515570908, 9.719072405556934413 ) ) ;
#4 = EDGE_CURVE ( 'NONE', #86, #78, #167, .T. ) ;
#5 = B_SPLINE_SURFACE_WITH_KNOTS ( 'NONE', 3, 3, ( 
 ( #60, #298, #9, #276 ),
 ( #219, #176, #175, #38 ),
 ( #296, #200, #13, #61 ),
 ( #275, #223, #88, #135 ),
 ( #222, #249, #35, #134 ),
 ( #224, #139, #247, #112 ),
 ( #154, #138, #300, #201 ),
 ( #152, #297, #111, #113 ),
 ( #197, #196, #156, #39 ),
 ( #63, #89, #59, #84 ),
 ( #244, #110, #153, #85 ),
 ( #94, #19, #230, #44 ),
 ( #281, #227, #92, #159 ),
 ( #255, #117, #203, #118 ),
 ( #207, #16, #46, #179 ),
 ( #97, #122, #225, #20 ),
 ( #256, #66, #282, #65 ),
 ( #183, #14, #283, #141 ) ),
 .UNSPECIFIED., .T., .F., .F.,
 ( 4, 1, 1, 1, 1, 2, 2, 2, 1, 1, 1, 1, 4 ),
 ( 4, 4 ),
 ( 0.0000000000000000000, 0.01249999999999995559, 0.02499999999999991118, 0.03750000000000008882, 0.05000000000000004441, 0.2500000000000000000, 0.5000000000000000000, 0.7500000000000000000, 0.9499999999999999556, 0.9625000000000000222, 0.9749999999999999778, 0.9875000000000000444, 1.000000000000000000 ),
 ( 0.0000000000000000000, 1.000000000000000000 ),
 .UNSPECIFIED. ) ;
#6 = APPROVAL_PERSON_ORGANIZATION ( #270, #36, #251 ) ;
#7 = ORIENTED_EDGE ( 'NONE', *, *, #31, .F. ) ;
#8 = CC_DESIGN_APPROVAL ( #36, ( #271 ) ) ;
#9 = CARTESIAN_POINT ( 'NONE',  ( -8.809142651444723526E-16, 10.97196784270046521, 4.399999999999999467 ) ) ;
#10 = CARTESIAN_POINT ( 'NONE',  ( 0.0000000000000000000, 0.0000000000000000000, 0.0000000000000000000 ) ) ;
#11 = CARTESIAN_POINT ( 'NONE',  ( -8.809142651444723526E-16, 10.97196784270046521, 4.399999999999999467 ) ) ;
#12 = SECURITY_CLASSIFICATION ( '', '', #121 ) ;
#13 = CARTESIAN_POINT ( 'NONE',  ( 0.3619796461126276732, 10.97194607626057206, 4.390142130218308125 ) ) ;
#14 = CARTESIAN_POINT ( 'NONE',  ( -1.273937552670467710E-15, 11.42613652139495350, 9.999999999999998224 ) ) ;
#15 = CARTESIAN_POINT ( 'NONE',  ( -8.809142651444723526E-16, 10.97196784270046521, 4.399999999999999467 ) ) ;
#16 = CARTESIAN_POINT ( 'NONE',  ( -1.624609862034865460, 11.42631647341599965, 9.879358540005581446 ) ) ;
#17 = ORIENTED_EDGE ( 'NONE', *, *, #250, .F. ) ;
#18 = APPLICATION_PROTOCOL_DEFINITION ( 'international standard', 'config_control_design', 1994, #162 ) ;
#19 = CARTESIAN_POINT ( 'NONE',  ( -10.00000000000000178, 11.42620088900998709, 4.415320079384797758 ) ) ;
#20 = CARTESIAN_POINT ( 'NONE',  ( -0.3619796461126305043, 15.25000000000000000, 4.390142130218308125 ) ) ;
#21 = CC_DESIGN_PERSON_AND_ORGANIZATION_ASSIGNMENT ( #265, #47, ( #190 ) ) ;
#22 = CARTESIAN_POINT ( 'NONE',  ( 1.624609862034863017, 11.42631647341600143, 9.879358540005583222 ) ) ;
#23 = CARTESIAN_POINT ( 'NONE',  ( -2.428426043661640499, 15.25000000000000000, -4.400000000000000355 ) ) ;
#24 = CARTESIAN_POINT ( 'NONE',  ( 0.8226810138923360549, 11.42619465707618431, 9.977595750496153215 ) ) ;
#25 = CARTESIAN_POINT ( 'NONE',  ( 0.2759575049615478615, 0.0000000000000000000, 9.999999999999998224 ) ) ;
#26 = COORDINATED_UNIVERSAL_TIME_OFFSET ( 5, 0, .BEHIND. ) ;
#27 = CARTESIAN_POINT ( 'NONE',  ( -9.999999999999998224, 0.0000000000000000000, -5.519150099231002748 ) ) ;
#28 = CARTESIAN_POINT ( 'NONE',  ( -1.058552168364681245, 10.97186816650567920, 4.276391858445051319 ) ) ;
#29 = CARTESIAN_POINT ( 'NONE',  ( -3.059329709689917465, 15.25000000000000000, 3.696243552661874876 ) ) ;
#30 = B_SPLINE_CURVE_WITH_KNOTS ( 'NONE', 3,
 ( #77, #126, #1, #145 ),
 .UNSPECIFIED., .F., .F.,
 ( 4, 4 ),
 ( 0.0000000000000000000, 1.000000000000000000 ),
 .UNSPECIFIED. ) ;
#31 = EDGE_CURVE ( 'NONE', #93, #288, #67, .T. ) ;
#32 = DIRECTION ( 'NONE',  ( 0.0000000000000000000, 0.0000000000000000000, 1.000000000000000000 ) ) ;
#33 = CC_DESIGN_APPROVAL ( #95, ( #12 ) ) ;
#34 = ORIENTED_EDGE ( 'NONE', *, *, #4, .F. ) ;
#35 = CARTESIAN_POINT ( 'NONE',  ( 1.058552168364679469, 10.97186816650566854, 4.276391858445051319 ) ) ;
#36 = APPROVAL ( #160, 'UNSPECIFIED' ) ;
#37 = DIRECTION ( 'NONE',  ( 0.0000000000000000000, 1.000000000000000000, 0.0000000000000000000 ) ) ;
#38 = CARTESIAN_POINT ( 'NONE',  ( 0.1214213021830807537, 15.25000000000000000, 4.399999999999999467 ) ) ;
#39 = CARTESIAN_POINT ( 'NONE',  ( 2.428426043661641387, 15.25000000000000000, -4.400000000000000355 ) ) ;
#40 = COORDINATED_UNIVERSAL_TIME_OFFSET ( 5, 0, .BEHIND. ) ;
#41 = ORIENTED_EDGE ( 'NONE', *, *, #107, .F. ) ;
#42 = APPROVAL_STATUS ( 'not_yet_approved' ) ;
#43 = CARTESIAN_POINT ( 'NONE',  ( 0.0000000000000000000, 0.0000000000000000000, 0.0000000000000000000 ) ) ;
#44 = CARTESIAN_POINT ( 'NONE',  ( -4.400000000000001243, 15.25000000000000000, 1.942740834929311156 ) ) ;
#45 = PERSON_AND_ORGANIZATION_ROLE ( 'design_owner' ) ;
#46 = CARTESIAN_POINT ( 'NONE',  ( -0.7148283392953411752, 10.97190046729921953, 4.346917757602454913 ) ) ;
#47 = PERSON_AND_ORGANIZATION_ROLE ( 'creator' ) ;
#48 = PRODUCT_RELATED_PRODUCT_CATEGORY ( 'detail', '', ( #238 ) ) ;
#49 = CARTESIAN_POINT ( 'NONE',  ( 2.405800382646999136, 11.42640274515571619, 9.719072405556936189 ) ) ;
#50 = CALENDAR_DATE ( 2019, 28, 10 ) ;
#51 = CARTESIAN_POINT ( 'NONE',  ( -1.273937552670467710E-15, 0.0000000000000000000, 9.999999999999998224 ) ) ;
#52 = CARTESIAN_POINT ( 'NONE',  ( 1.058552168364679469, 15.25000000000000000, 4.276391858445051319 ) ) ;
#53 = CARTESIAN_POINT ( 'NONE',  ( -4.399999999999999467, 10.97199796735441701, -2.428426043661641387 ) ) ;
#54 = B_SPLINE_CURVE_WITH_KNOTS ( 'NONE', 3,
 ( #71, #206, #15, #226 ),
 .UNSPECIFIED., .F., .F.,
 ( 4, 4 ),
 ( 0.0000000000000000000, 1.000000000000000000 ),
 .UNSPECIFIED. ) ;
#55 = CARTESIAN_POINT ( 'NONE',  ( -0.7148283392953411752, 15.25000000000000000, 4.346917757602454913 ) ) ;
#56 = CARTESIAN_POINT ( 'NONE',  ( -0.2759575049615504150, 0.0000000000000000000, 9.999999999999998224 ) ) ;
#57 = CC_DESIGN_PERSON_AND_ORGANIZATION_ASSIGNMENT ( #158, #178, ( #271 ) ) ;
#58 = ORIENTED_EDGE ( 'NONE', *, *, #261, .F. ) ;
#59 = CARTESIAN_POINT ( 'NONE',  ( -2.428426043661640499, 10.97196784270047765, -4.400000000000000355 ) ) ;
#60 = CARTESIAN_POINT ( 'NONE',  ( -1.273937552670467710E-15, 0.0000000000000000000, 9.999999999999998224 ) ) ;
#61 = CARTESIAN_POINT ( 'NONE',  ( 0.3619796461126276177, 15.25000000000000000, 4.390142130218308125 ) ) ;
#62 = AXIS2_PLACEMENT_3D ( 'NONE', #10, #272, #155 ) ;
#63 = CARTESIAN_POINT ( 'NONE',  ( -5.519150099231000084, 0.0000000000000000000, -10.00000000000000000 ) ) ;
#64 = CARTESIAN_POINT ( 'NONE',  ( 0.0000000000000000000, 15.25000000000000000, 0.0000000000000000000 ) ) ;
#65 = CARTESIAN_POINT ( 'NONE',  ( -0.1214213021830825023, 15.25000000000000000, 4.399999999999999467 ) ) ;
#66 = CARTESIAN_POINT ( 'NONE',  ( -0.2759575049615504150, 11.42613652139495350, 9.999999999999998224 ) ) ;
#67 = CIRCLE ( 'NONE', #133, 4.400000000000000355 ) ;
#68 = DIRECTION ( 'NONE',  ( 0.0000000000000000000, 1.000000000000000000, 0.0000000000000000000 ) ) ;
#69 = DATE_TIME_ROLE ( 'classification_date' ) ;
#70 = MECHANICAL_CONTEXT ( 'NONE', #162, 'mechanical' ) ;
#71 = CARTESIAN_POINT ( 'NONE',  ( -6.369687763352338550E-16, 0.0000000000000000000, 9.999999999999998224 ) ) ;
#72 = CARTESIAN_POINT ( 'NONE',  ( 1.058552168364679469, 10.97186816650566854, 4.276391858445051319 ) ) ;
#73 = CARTESIAN_POINT ( 'NONE',  ( -10.00000000000000178, 11.42620088900998709, 4.415320079384797758 ) ) ;
#74 = CARTESIAN_POINT ( 'NONE',  ( 0.7148283392953395099, 10.97190046729921242, 4.346917757602455801 ) ) ;
#75 = CARTESIAN_POINT ( 'NONE',  ( -8.809142651444723526E-16, 10.97196784270046521, 4.399999999999999467 ) ) ;
#76 = CALENDAR_DATE ( 2019, 28, 10 ) ;
#77 = CARTESIAN_POINT ( 'NONE',  ( 1.262844703064979190E-15, 0.0000000000000000000, -10.00000000000000000 ) ) ;
#78 = VERTEX_POINT ( 'NONE', #279 ) ;
#79 = CARTESIAN_POINT ( 'NONE',  ( -3.059329709689917465, 10.97187716749209407, 3.696243552661874876 ) ) ;
#80 = CC_DESIGN_PERSON_AND_ORGANIZATION_ASSIGNMENT ( #286, #307, ( #271 ) ) ;
#81 = AXIS2_PLACEMENT_3D ( 'NONE', #311, #310, #266 ) ;
#82 = PERSON_AND_ORGANIZATION ( #131, #163 ) ;
#83 = EDGE_LOOP ( 'NONE', ( #205, #171, #7, #41 ) ) ;
#84 = CARTESIAN_POINT ( 'NONE',  ( -2.428426043661640499, 15.25000000000000000, -4.400000000000000355 ) ) ;
#85 = CARTESIAN_POINT ( 'NONE',  ( -4.399999999999999467, 15.25000000000000000, -2.428426043661641387 ) ) ;
#86 = VERTEX_POINT ( 'NONE', #119 ) ;
#87 = CARTESIAN_POINT ( 'NONE',  ( -1.273937552670467710E-15, 11.42613652139495350, 9.999999999999998224 ) ) ;
#88 = CARTESIAN_POINT ( 'NONE',  ( 0.7148283392953395099, 10.97190046729921242, 4.346917757602455801 ) ) ;
#89 = CARTESIAN_POINT ( 'NONE',  ( -5.519150099231000084, 11.42613652139494995, -10.00000000000000000 ) ) ;
#90 = DIRECTION ( 'NONE',  ( 0.0000000000000000000, 1.000000000000000000, 0.0000000000000000000 ) ) ;
#91 = LOCAL_TIME ( 8, 51, 55.00000000000000000, #40 ) ;
#92 = CARTESIAN_POINT ( 'NONE',  ( -3.059329709689917465, 10.97187716749209407, 3.696243552661874876 ) ) ;
#93 = VERTEX_POINT ( 'NONE', #202 ) ;
#94 = CARTESIAN_POINT ( 'NONE',  ( -10.00000000000000178, 0.0000000000000000000, 4.415320079384797758 ) ) ;
#95 = APPROVAL ( #42, 'UNSPECIFIED' ) ;
#96 = APPLICATION_PROTOCOL_DEFINITION ( 'international standard', 'config_control_design', 1994, #229 ) ;
#97 = CARTESIAN_POINT ( 'NONE',  ( -0.8226810138923411619, 0.0000000000000000000, 9.977595750496153215 ) ) ;
#98 = CARTESIAN_POINT ( 'NONE',  ( 10.00000000000000000, 11.42620088900997288, 4.415320079384800422 ) ) ;
#99 = CARTESIAN_POINT ( 'NONE',  ( -4.400000000000001243, 10.97194374297732367, 1.942740834929310934 ) ) ;
#100 = CC_DESIGN_PERSON_AND_ORGANIZATION_ASSIGNMENT ( #181, #142, ( #12 ) ) ;
#101 = CARTESIAN_POINT ( 'NONE',  ( 4.400000000000000355, 10.97194374297733610, 1.942740834929312266 ) ) ;
#102 = COORDINATED_UNIVERSAL_TIME_OFFSET ( 5, 0, .BEHIND. ) ;
#103 = ORIENTED_EDGE ( 'NONE', *, *, #250, .T. ) ;
#104 = DIRECTION ( 'NONE',  ( 0.0000000000000000000, 1.000000000000000000, 0.0000000000000000000 ) ) ;
#105 = CARTESIAN_POINT ( 'NONE',  ( 0.2759575049615478615, 11.42613652139495350, 9.999999999999998224 ) ) ;
#106 = CARTESIAN_POINT ( 'NONE',  ( -6.953022067477082402, 0.0000000000000000000, 8.400553528776988799 ) ) ;
#107 = EDGE_CURVE ( 'NONE', #78, #93, #54, .T. ) ;
#108 = APPROVAL_DATE_TIME ( #132, #208 ) ;
#109 = CC_DESIGN_SECURITY_CLASSIFICATION ( #12, ( #271 ) ) ;
#110 = CARTESIAN_POINT ( 'NONE',  ( -9.999999999999998224, 11.42605606187616551, -5.519150099231002748 ) ) ;
#111 = CARTESIAN_POINT ( 'NONE',  ( 4.400000000000000355, 10.97199796735439570, -2.428426043661640499 ) ) ;
#112 = CARTESIAN_POINT ( 'NONE',  ( 3.059329709689916577, 15.25000000000000000, 3.696243552661874876 ) ) ;
#113 = CARTESIAN_POINT ( 'NONE',  ( 4.400000000000000355, 15.25000000000000000, -2.428426043661640499 ) ) ;
#114 = LOCAL_TIME ( 8, 51, 55.00000000000000000, #26 ) ;
#115 = CC_DESIGN_DATE_AND_TIME_ASSIGNMENT ( #195, #69, ( #12 ) ) ;
#116 = CARTESIAN_POINT ( 'NONE',  ( 0.0000000000000000000, 15.25000000000000000, 0.0000000000000000000 ) ) ;
#117 = CARTESIAN_POINT ( 'NONE',  ( -2.405800382647001801, 11.42640274515570908, 9.719072405556934413 ) ) ;
#118 = CARTESIAN_POINT ( 'NONE',  ( -1.058552168364681245, 15.25000000000000000, 4.276391858445051319 ) ) ;
#119 = CARTESIAN_POINT ( 'NONE',  ( 1.262844703064979190E-15, 0.0000000000000000000, -10.00000000000000000 ) ) ;
#120 = APPROVAL_DATE_TIME ( #259, #95 ) ;
#121 = SECURITY_CLASSIFICATION_LEVEL ( 'unclassified' ) ;
#122 = CARTESIAN_POINT ( 'NONE',  ( -0.8226810138923411619, 11.42619465707618431, 9.977595750496153215 ) ) ;
#123 = CARTESIAN_POINT ( 'NONE',  ( -5.519150099231000084, 0.0000000000000000000, -10.00000000000000000 ) ) ;
#124 = COORDINATED_UNIVERSAL_TIME_OFFSET ( 5, 0, .BEHIND. ) ;
#125 = CARTESIAN_POINT ( 'NONE',  ( -4.400000000000001243, 15.25000000000000000, 1.942740834929311156 ) ) ;
#126 = CARTESIAN_POINT ( 'NONE',  ( 1.301042606982605321E-15, 11.42613652139495528, -10.00000000000000000 ) ) ;
#127 = CARTESIAN_POINT ( 'NONE',  ( 2.428426043661641387, 10.97196784270046521, -4.400000000000000355 ) ) ;
#128 = PLANE ( 'NONE',  #81 ) ;
#129 = LOCAL_TIME ( 8, 51, 55.00000000000000000, #124 ) ;
#130 = CARTESIAN_POINT ( 'NONE',  ( -0.3619796461126305043, 10.97194607626056495, 4.390142130218308125 ) ) ;
#131 = PERSON ( 'UNSPECIFIED', 'UNSPECIFIED', 'UNSPECIFIED', ('UNSPECIFIED'), ('UNSPECIFIED'), ('UNSPECIFIED') ) ;
#132 = DATE_AND_TIME ( #50, #91 ) ;
#133 = AXIS2_PLACEMENT_3D ( 'NONE', #64, #68, #161 ) ;
#134 = CARTESIAN_POINT ( 'NONE',  ( 1.058552168364679469, 15.25000000000000000, 4.276391858445051319 ) ) ;
#135 = CARTESIAN_POINT ( 'NONE',  ( 0.7148283392953395099, 15.25000000000000000, 4.346917757602455801 ) ) ;
#136 = LOCAL_TIME ( 8, 51, 55.00000000000000000, #252 ) ;
#137 = CARTESIAN_POINT ( 'NONE',  ( -0.1214213021830825023, 10.97196784270046521, 4.399999999999999467 ) ) ;
#138 = CARTESIAN_POINT ( 'NONE',  ( 10.00000000000000000, 11.42620088900997288, 4.415320079384800422 ) ) ;
#139 = CARTESIAN_POINT ( 'NONE',  ( 6.953022067477082402, 11.42637870454646531, 8.400553528776987022 ) ) ;
#140 = APPROVAL_PERSON_ORGANIZATION ( #268, #95, #164 ) ;
#141 = CARTESIAN_POINT ( 'NONE',  ( -8.741380015664379499E-16, 15.25000000000000000, 4.399999999999999467 ) ) ;
#142 = PERSON_AND_ORGANIZATION_ROLE ( 'classification_officer' ) ;
#143 = ADVANCED_FACE ( 'NONE', ( #243 ), #180, .F. ) ;
#144 = CARTESIAN_POINT ( 'NONE',  ( 6.953022067477082402, 0.0000000000000000000, 8.400553528776987022 ) ) ;
#145 = CARTESIAN_POINT ( 'NONE',  ( 4.862627303095185874E-16, 15.25000000000000000, -4.400000000000000355 ) ) ;
#146 = CARTESIAN_POINT ( 'NONE',  ( 3.059329709689916132, 10.97187716749215092, 3.696243552661874876 ) ) ;
#147 = CARTESIAN_POINT ( 'NONE',  ( 0.3619796461126276177, 15.25000000000000000, 4.390142130218308125 ) ) ;
#148 = CARTESIAN_POINT ( 'NONE',  ( 3.059329709689916577, 15.25000000000000000, 3.696243552661874876 ) ) ;
#149 = CARTESIAN_POINT ( 'NONE',  ( -0.7148283392953411752, 10.97190046729921953, 4.346917757602454913 ) ) ;
#150 = AXIS2_PLACEMENT_3D ( 'NONE', #182, #280, #304 ) ;
#151 = EDGE_LOOP ( 'NONE', ( #218, #103 ) ) ;
#152 = CARTESIAN_POINT ( 'NONE',  ( 10.00000000000000000, 0.0000000000000000000, -5.519150099231000972 ) ) ;
#153 = CARTESIAN_POINT ( 'NONE',  ( -4.399999999999999467, 10.97199796735441701, -2.428426043661641387 ) ) ;
#154 = CARTESIAN_POINT ( 'NONE',  ( 10.00000000000000000, 0.0000000000000000000, 4.415320079384800422 ) ) ;
#155 = DIRECTION ( 'NONE',  ( 0.0000000000000000000, 0.0000000000000000000, 1.000000000000000000 ) ) ;
#156 = CARTESIAN_POINT ( 'NONE',  ( 2.428426043661641387, 10.97196784270046521, -4.400000000000000355 ) ) ;
#157 = AXIS2_PLACEMENT_3D ( 'NONE', #284, #104, #187 ) ;
#158 = PERSON_AND_ORGANIZATION ( #131, #163 ) ;
#159 = CARTESIAN_POINT ( 'NONE',  ( -3.059329709689917465, 15.25000000000000000, 3.696243552661874876 ) ) ;
#160 = APPROVAL_STATUS ( 'not_yet_approved' ) ;
#161 = DIRECTION ( 'NONE',  ( 0.0000000000000000000, 0.0000000000000000000, 1.000000000000000000 ) ) ;
#162 = APPLICATION_CONTEXT ( 'configuration controlled 3d designs of mechanical parts and assemblies' ) ;
#163 = ORGANIZATION ( 'UNSPECIFIED', 'UNSPECIFIED', '' ) ;
#164 = APPROVAL_ROLE ( '' ) ;
#165 = ADVANCED_FACE ( 'NONE', ( #306 ), #128, .T. ) ;
#166 = CARTESIAN_POINT ( 'NONE',  ( 0.8226810138923360549, 0.0000000000000000000, 9.977595750496153215 ) ) ;
#167 = CIRCLE ( 'NONE', #274, 10.00000000000000000 ) ;
#168 = CARTESIAN_POINT ( 'NONE',  ( 5.519150099231002748, 0.0000000000000000000, -10.00000000000000000 ) ) ;
#169 = CARTESIAN_POINT ( 'NONE',  ( -2.405800382647001801, 0.0000000000000000000, 9.719072405556934413 ) ) ;
#170 = CARTESIAN_POINT ( 'NONE',  ( -6.953022067477082402, 11.42637870454650617, 8.400553528776988799 ) ) ;
#171 = ORIENTED_EDGE ( 'NONE', *, *, #194, .T. ) ;
#172 = APPROVAL_DATE_TIME ( #204, #36 ) ;
#173 = CIRCLE ( 'NONE', #62, 10.00000000000000000 ) ;
#174 = CARTESIAN_POINT ( 'NONE',  ( -1.273937552670467710E-15, 0.0000000000000000000, 9.999999999999998224 ) ) ;
#175 = CARTESIAN_POINT ( 'NONE',  ( 0.1214213021830807399, 10.97196784270046521, 4.399999999999999467 ) ) ;
#176 = CARTESIAN_POINT ( 'NONE',  ( 0.2759575049615478615, 11.42613652139495350, 9.999999999999998224 ) ) ;
#177 = DIRECTION ( 'NONE',  ( 0.0000000000000000000, 0.0000000000000000000, 1.000000000000000000 ) ) ;
#178 = PERSON_AND_ORGANIZATION_ROLE ( 'design_supplier' ) ;
#179 = CARTESIAN_POINT ( 'NONE',  ( -0.7148283392953411752, 15.25000000000000000, 4.346917757602454913 ) ) ;
#180 = PLANE ( 'NONE',  #157 ) ;
#181 = PERSON_AND_ORGANIZATION ( #131, #163 ) ;
#182 = CARTESIAN_POINT ( 'NONE',  ( 0.0000000000000000000, 0.0000000000000000000, 0.0000000000000000000 ) ) ;
#183 = CARTESIAN_POINT ( 'NONE',  ( -1.273937552670467710E-15, 0.0000000000000000000, 9.999999999999998224 ) ) ;
#184 = CARTESIAN_POINT ( 'NONE',  ( -10.00000000000000178, 0.0000000000000000000, 4.415320079384797758 ) ) ;
#185 = CARTESIAN_POINT ( 'NONE',  ( -8.741380015664379499E-16, 15.25000000000000000, 4.399999999999999467 ) ) ;
#186 = CARTESIAN_POINT ( 'NONE',  ( -1.273937552670467710E-15, 11.42613652139495350, 9.999999999999998224 ) ) ;
#187 = DIRECTION ( 'NONE',  ( 0.0000000000000000000, -0.0000000000000000000, 1.000000000000000000 ) ) ;
#188 = CARTESIAN_POINT ( 'NONE',  ( 4.400000000000000355, 10.97199796735439570, -2.428426043661640499 ) ) ;
#189 = PRODUCT_DEFINITION_SHAPE ( 'NONE', 'NONE',  #190 ) ;
#190 = PRODUCT_DEFINITION ( 'UNKNOWN', '', #271, #221 ) ;
#191 = FACE_OUTER_BOUND ( 'NONE', #83, .T. ) ;
#192 = CARTESIAN_POINT ( 'NONE',  ( -1.058552168364681245, 15.25000000000000000, 4.276391858445051319 ) ) ;
#193 = CARTESIAN_POINT ( 'NONE',  ( -0.3619796461126305043, 15.25000000000000000, 4.390142130218308125 ) ) ;
#194 = EDGE_CURVE ( 'NONE', #86, #288, #30, .T. ) ;
#195 = DATE_AND_TIME ( #198, #136 ) ;
#196 = CARTESIAN_POINT ( 'NONE',  ( 5.519150099231002748, 11.42613652139495883, -10.00000000000000000 ) ) ;
#197 = CARTESIAN_POINT ( 'NONE',  ( 5.519150099231002748, 0.0000000000000000000, -10.00000000000000000 ) ) ;
#198 = CALENDAR_DATE ( 2019, 28, 10 ) ;
#199 = ADVANCED_BREP_SHAPE_REPRESENTATION ( 'Web Model 55134_Default', ( #258, #150 ), #269 ) ;
#200 = CARTESIAN_POINT ( 'NONE',  ( 0.8226810138923360549, 11.42619465707618431, 9.977595750496153215 ) ) ;
#201 = CARTESIAN_POINT ( 'NONE',  ( 4.400000000000000355, 15.25000000000000000, 1.942740834929312266 ) ) ;
#202 = CARTESIAN_POINT ( 'NONE',  ( -4.370690007832189750E-16, 15.25000000000000000, 4.399999999999999467 ) ) ;
#203 = CARTESIAN_POINT ( 'NONE',  ( -1.058552168364681245, 10.97186816650567920, 4.276391858445051319 ) ) ;
#204 = DATE_AND_TIME ( #234, #129 ) ;
#205 = ORIENTED_EDGE ( 'NONE', *, *, #261, .T. ) ;
#206 = CARTESIAN_POINT ( 'NONE',  ( -1.273937552670467710E-15, 11.42613652139495350, 9.999999999999998224 ) ) ;
#207 = CARTESIAN_POINT ( 'NONE',  ( -1.624609862034865460, 0.0000000000000000000, 9.879358540005581446 ) ) ;
#208 = APPROVAL ( #302, 'UNSPECIFIED' ) ;
#209 = APPROVAL_ROLE ( '' ) ;
#210 = ADVANCED_FACE ( 'NONE', ( #2 ), #212, .T. ) ;
#211 = CARTESIAN_POINT ( 'NONE',  ( -9.999999999999998224, 11.42605606187616551, -5.519150099231002748 ) ) ;
#212 = B_SPLINE_SURFACE_WITH_KNOTS ( 'NONE', 3, 3, ( 
 ( #51, #186, #75, #185 ),
 ( #25, #105, #290, #213 ),
 ( #166, #24, #312, #147 ),
 ( #287, #22, #74, #285 ),
 ( #262, #49, #72, #52 ),
 ( #144, #239, #146, #148 ),
 ( #236, #98, #101, #263 ),
 ( #264, #237, #188, #233 ),
 ( #168, #231, #127, #260 ),
 ( #123, #289, #308, #23 ),
 ( #27, #211, #53, #215 ),
 ( #184, #73, #99, #125 ),
 ( #106, #170, #79, #29 ),
 ( #169, #3, #28, #192 ),
 ( #216, #291, #149, #55 ),
 ( #267, #241, #130, #193 ),
 ( #56, #217, #137, #220 ),
 ( #174, #87, #11, #246 ) ),
 .UNSPECIFIED., .T., .F., .F.,
 ( 4, 1, 1, 1, 1, 2, 2, 2, 1, 1, 1, 1, 4 ),
 ( 4, 4 ),
 ( 0.0000000000000000000, 0.01249999999999995559, 0.02499999999999991118, 0.03750000000000008882, 0.05000000000000004441, 0.2500000000000000000, 0.5000000000000000000, 0.7500000000000000000, 0.9499999999999999556, 0.9625000000000000222, 0.9749999999999999778, 0.9875000000000000444, 1.000000000000000000 ),
 ( 0.0000000000000000000, 1.000000000000000000 ),
 .UNSPECIFIED. ) ;
#213 = CARTESIAN_POINT ( 'NONE',  ( 0.1214213021830807537, 15.25000000000000000, 4.399999999999999467 ) ) ;
#214 = ORIENTED_EDGE ( 'NONE', *, *, #4, .T. ) ;
#215 = CARTESIAN_POINT ( 'NONE',  ( -4.399999999999999467, 15.25000000000000000, -2.428426043661641387 ) ) ;
#216 = CARTESIAN_POINT ( 'NONE',  ( -1.624609862034865460, 0.0000000000000000000, 9.879358540005581446 ) ) ;
#217 = CARTESIAN_POINT ( 'NONE',  ( -0.2759575049615504150, 11.42613652139495350, 9.999999999999998224 ) ) ;
#218 = ORIENTED_EDGE ( 'NONE', *, *, #31, .T. ) ;
#219 = CARTESIAN_POINT ( 'NONE',  ( 0.2759575049615478615, 0.0000000000000000000, 9.999999999999998224 ) ) ;
#220 = CARTESIAN_POINT ( 'NONE',  ( -0.1214213021830825023, 15.25000000000000000, 4.399999999999999467 ) ) ;
#221 = DESIGN_CONTEXT ( 'detailed design', #229, 'design' ) ;
#222 = CARTESIAN_POINT ( 'NONE',  ( 2.405800382646999136, 0.0000000000000000000, 9.719072405556936189 ) ) ;
#223 = CARTESIAN_POINT ( 'NONE',  ( 1.624609862034863017, 11.42631647341600143, 9.879358540005583222 ) ) ;
#224 = CARTESIAN_POINT ( 'NONE',  ( 6.953022067477082402, 0.0000000000000000000, 8.400553528776987022 ) ) ;
#225 = CARTESIAN_POINT ( 'NONE',  ( -0.3619796461126305043, 10.97194607626056495, 4.390142130218308125 ) ) ;
#226 = CARTESIAN_POINT ( 'NONE',  ( -4.370690007832189750E-16, 15.25000000000000000, 4.399999999999999467 ) ) ;
#227 = CARTESIAN_POINT ( 'NONE',  ( -6.953022067477082402, 11.42637870454650617, 8.400553528776988799 ) ) ;
#228 =( LENGTH_UNIT ( ) NAMED_UNIT ( * ) SI_UNIT ( .MILLI., .METRE. ) );
#229 = APPLICATION_CONTEXT ( 'configuration controlled 3d designs of mechanical parts and assemblies' ) ;
#230 = CARTESIAN_POINT ( 'NONE',  ( -4.400000000000001243, 10.97194374297732367, 1.942740834929310934 ) ) ;
#231 = CARTESIAN_POINT ( 'NONE',  ( 5.519150099231002748, 11.42613652139495883, -10.00000000000000000 ) ) ;
#232 = UNCERTAINTY_MEASURE_WITH_UNIT (LENGTH_MEASURE( 1.000000000000000082E-05 ), #228, 'distance_accuracy_value', 'NONE');
#233 = CARTESIAN_POINT ( 'NONE',  ( 4.400000000000000355, 15.25000000000000000, -2.428426043661640499 ) ) ;
#234 = CALENDAR_DATE ( 2019, 28, 10 ) ;
#235 = EDGE_LOOP ( 'NONE', ( #58, #34 ) ) ;
#236 = CARTESIAN_POINT ( 'NONE',  ( 10.00000000000000000, 0.0000000000000000000, 4.415320079384800422 ) ) ;
#237 = CARTESIAN_POINT ( 'NONE',  ( 10.00000000000000000, 11.42605606187618328, -5.519150099231001860 ) ) ;
#238 = PRODUCT ( 'Web Model 55134_Default', 'Web Model 55134_Default', '', ( #70 ) ) ;
#239 = CARTESIAN_POINT ( 'NONE',  ( 6.953022067477082402, 11.42637870454646531, 8.400553528776987022 ) ) ;
#240 = CC_DESIGN_APPROVAL ( #208, ( #190 ) ) ;
#241 = CARTESIAN_POINT ( 'NONE',  ( -0.8226810138923411619, 11.42619465707618431, 9.977595750496153215 ) ) ;
#242 = CIRCLE ( 'NONE', #245, 4.400000000000000355 ) ;
#243 = FACE_OUTER_BOUND ( 'NONE', #235, .T. ) ;
#244 = CARTESIAN_POINT ( 'NONE',  ( -9.999999999999998224, 0.0000000000000000000, -5.519150099231002748 ) ) ;
#245 = AXIS2_PLACEMENT_3D ( 'NONE', #116, #37, #32 ) ;
#246 = CARTESIAN_POINT ( 'NONE',  ( -8.741380015664379499E-16, 15.25000000000000000, 4.399999999999999467 ) ) ;
#247 = CARTESIAN_POINT ( 'NONE',  ( 3.059329709689916132, 10.97187716749215092, 3.696243552661874876 ) ) ;
#248 = LOCAL_TIME ( 8, 51, 55.00000000000000000, #102 ) ;
#249 = CARTESIAN_POINT ( 'NONE',  ( 2.405800382646999136, 11.42640274515571619, 9.719072405556936189 ) ) ;
#250 = EDGE_CURVE ( 'NONE', #288, #93, #242, .T. ) ;
#251 = APPROVAL_ROLE ( '' ) ;
#252 = COORDINATED_UNIVERSAL_TIME_OFFSET ( 5, 0, .BEHIND. ) ;
#253 = DATE_TIME_ROLE ( 'creation_date' ) ;
#254 = CLOSED_SHELL ( 'NONE', ( #313, #165, #143, #210 ) ) ;
#255 = CARTESIAN_POINT ( 'NONE',  ( -2.405800382647001801, 0.0000000000000000000, 9.719072405556934413 ) ) ;
#256 = CARTESIAN_POINT ( 'NONE',  ( -0.2759575049615504150, 0.0000000000000000000, 9.999999999999998224 ) ) ;
#257 =( NAMED_UNIT ( * ) SI_UNIT ( $, .STERADIAN. ) SOLID_ANGLE_UNIT ( ) );
#258 = MANIFOLD_SOLID_BREP ( 'Loft1', #254 ) ;
#259 = DATE_AND_TIME ( #76, #248 ) ;
#260 = CARTESIAN_POINT ( 'NONE',  ( 2.428426043661641387, 15.25000000000000000, -4.400000000000000355 ) ) ;
#261 = EDGE_CURVE ( 'NONE', #78, #86, #173, .T. ) ;
#262 = CARTESIAN_POINT ( 'NONE',  ( 2.405800382646999136, 0.0000000000000000000, 9.719072405556936189 ) ) ;
#263 = CARTESIAN_POINT ( 'NONE',  ( 4.400000000000000355, 15.25000000000000000, 1.942740834929312266 ) ) ;
#264 = CARTESIAN_POINT ( 'NONE',  ( 10.00000000000000000, 0.0000000000000000000, -5.519150099231000972 ) ) ;
#265 = PERSON_AND_ORGANIZATION ( #131, #163 ) ;
#266 = DIRECTION ( 'NONE',  ( 0.0000000000000000000, -0.0000000000000000000, 1.000000000000000000 ) ) ;
#267 = CARTESIAN_POINT ( 'NONE',  ( -0.8226810138923411619, 0.0000000000000000000, 9.977595750496153215 ) ) ;
#268 = PERSON_AND_ORGANIZATION ( #131, #163 ) ;
#269 =( GEOMETRIC_REPRESENTATION_CONTEXT ( 3 ) GLOBAL_UNCERTAINTY_ASSIGNED_CONTEXT ( ( #232 ) ) GLOBAL_UNIT_ASSIGNED_CONTEXT ( ( #228, #303, #257 ) ) REPRESENTATION_CONTEXT ( 'NONE', 'WORKASPACE' ) );
#270 = PERSON_AND_ORGANIZATION ( #131, #163 ) ;
#271 = PRODUCT_DEFINITION_FORMATION_WITH_SPECIFIED_SOURCE ( 'ANY', '', #238, .NOT_KNOWN. ) ;
#272 = DIRECTION ( 'NONE',  ( 0.0000000000000000000, 1.000000000000000000, 0.0000000000000000000 ) ) ;
#273 = CARTESIAN_POINT ( 'NONE',  ( 4.862627303095185874E-16, 15.25000000000000000, -4.400000000000000355 ) ) ;
#274 = AXIS2_PLACEMENT_3D ( 'NONE', #43, #90, #177 ) ;
#275 = CARTESIAN_POINT ( 'NONE',  ( 1.624609862034863017, 0.0000000000000000000, 9.879358540005583222 ) ) ;
#276 = CARTESIAN_POINT ( 'NONE',  ( -8.741380015664379499E-16, 15.25000000000000000, 4.399999999999999467 ) ) ;
#277 = APPROVAL_PERSON_ORGANIZATION ( #305, #208, #209 ) ;
#278 = ORIENTED_EDGE ( 'NONE', *, *, #194, .F. ) ;
#279 = CARTESIAN_POINT ( 'NONE',  ( -6.369687763352338550E-16, 0.0000000000000000000, 9.999999999999998224 ) ) ;
#280 = DIRECTION ( 'NONE',  ( 0.0000000000000000000, 0.0000000000000000000, 1.000000000000000000 ) ) ;
#281 = CARTESIAN_POINT ( 'NONE',  ( -6.953022067477082402, 0.0000000000000000000, 8.400553528776988799 ) ) ;
#282 = CARTESIAN_POINT ( 'NONE',  ( -0.1214213021830825023, 10.97196784270046521, 4.399999999999999467 ) ) ;
#283 = CARTESIAN_POINT ( 'NONE',  ( -8.809142651444723526E-16, 10.97196784270046521, 4.399999999999999467 ) ) ;
#284 = CARTESIAN_POINT ( 'NONE',  ( 0.0000000000000000000, 0.0000000000000000000, 0.0000000000000000000 ) ) ;
#285 = CARTESIAN_POINT ( 'NONE',  ( 0.7148283392953395099, 15.25000000000000000, 4.346917757602455801 ) ) ;
#286 = PERSON_AND_ORGANIZATION ( #131, #163 ) ;
#287 = CARTESIAN_POINT ( 'NONE',  ( 1.624609862034863017, 0.0000000000000000000, 9.879358540005583222 ) ) ;
#288 = VERTEX_POINT ( 'NONE', #273 ) ;
#289 = CARTESIAN_POINT ( 'NONE',  ( -5.519150099231000084, 11.42613652139494995, -10.00000000000000000 ) ) ;
#290 = CARTESIAN_POINT ( 'NONE',  ( 0.1214213021830807399, 10.97196784270046521, 4.399999999999999467 ) ) ;
#291 = CARTESIAN_POINT ( 'NONE',  ( -1.624609862034865460, 11.42631647341599965, 9.879358540005581446 ) ) ;
#292 = EDGE_LOOP ( 'NONE', ( #278, #214, #301, #17 ) ) ;
#293 = CC_DESIGN_PERSON_AND_ORGANIZATION_ASSIGNMENT ( #82, #45, ( #238 ) ) ;
#294 = DATE_AND_TIME ( #299, #114 ) ;
#295 = SHAPE_DEFINITION_REPRESENTATION ( #189, #199 ) ;
#296 = CARTESIAN_POINT ( 'NONE',  ( 0.8226810138923360549, 0.0000000000000000000, 9.977595750496153215 ) ) ;
#297 = CARTESIAN_POINT ( 'NONE',  ( 10.00000000000000000, 11.42605606187618328, -5.519150099231001860 ) ) ;
#298 = CARTESIAN_POINT ( 'NONE',  ( -1.273937552670467710E-15, 11.42613652139495350, 9.999999999999998224 ) ) ;
#299 = CALENDAR_DATE ( 2019, 28, 10 ) ;
#300 = CARTESIAN_POINT ( 'NONE',  ( 4.400000000000000355, 10.97194374297733610, 1.942740834929312266 ) ) ;
#301 = ORIENTED_EDGE ( 'NONE', *, *, #107, .T. ) ;
#302 = APPROVAL_STATUS ( 'not_yet_approved' ) ;
#303 =( NAMED_UNIT ( * ) PLANE_ANGLE_UNIT ( ) SI_UNIT ( $, .RADIAN. ) );
#304 = DIRECTION ( 'NONE',  ( 1.000000000000000000, 0.0000000000000000000, 0.0000000000000000000 ) ) ;
#305 = PERSON_AND_ORGANIZATION ( #131, #163 ) ;
#306 = FACE_OUTER_BOUND ( 'NONE', #151, .T. ) ;
#307 = PERSON_AND_ORGANIZATION_ROLE ( 'creator' ) ;
#308 = CARTESIAN_POINT ( 'NONE',  ( -2.428426043661640499, 10.97196784270047765, -4.400000000000000355 ) ) ;
#309 = CC_DESIGN_DATE_AND_TIME_ASSIGNMENT ( #294, #253, ( #190 ) ) ;
#310 = DIRECTION ( 'NONE',  ( 0.0000000000000000000, 1.000000000000000000, 0.0000000000000000000 ) ) ;
#311 = CARTESIAN_POINT ( 'NONE',  ( 0.0000000000000000000, 15.25000000000000000, 0.0000000000000000000 ) ) ;
#312 = CARTESIAN_POINT ( 'NONE',  ( 0.3619796461126276732, 10.97194607626057206, 4.390142130218308125 ) ) ;
#313 = ADVANCED_FACE ( 'NONE', ( #191 ), #5, .T. ) ;
ENDSEC;
END-ISO-10303-21;
