ISO-10303-21;
HEADER;
FILE_DESCRIPTION (( 'STEP AP203' ),
    '1' );
FILE_NAME ('Web Model 37128MX_37138.step',
    '2018-05-08T16:13:12',
    ( '' ),
    ( '' ),
    'SwSTEP 2.0',
    'SolidWorks 2016',
    '' );
FILE_SCHEMA (( 'CONFIG_CONTROL_DESIGN' ));
ENDSEC;

DATA;
#1 = DATE_TIME_ROLE ( 'classification_date' ) ;
#2 = CALENDAR_DATE ( 2018, 8, 5 ) ;
#3 = CC_DESIGN_PERSON_AND_ORGANIZATION_ASSIGNMENT ( #7, #181, ( #112 ) ) ;
#4 = VECTOR ( 'NONE', #84, 1000.000000000000000 ) ;
#5 = ORIENTED_EDGE ( 'NONE', *, *, #20, .F. ) ;
#6 = EDGE_CURVE ( 'NONE', #220, #99, #172, .T. ) ;
#7 = PERSON_AND_ORGANIZATION ( #221, #204 ) ;
#8 = LINE ( 'NONE', #66, #98 ) ;
#9 = CARTESIAN_POINT ( 'NONE',  ( 12.50000000000000500, -12.50000000000000200, 3.000000000000000000 ) ) ;
#10 = CARTESIAN_POINT ( 'NONE',  ( -12.49999999999999500, 12.49999999999999500, -3.000000000000000000 ) ) ;
#11 = CARTESIAN_POINT ( 'NONE',  ( -12.49999999999999500, 12.49999999999999500, 3.000000000000000000 ) ) ;
#12 =( LENGTH_UNIT ( ) NAMED_UNIT ( * ) SI_UNIT ( .MILLI., .METRE. ) );
#13 = SHAPE_DEFINITION_REPRESENTATION ( #232, #69 ) ;
#14 = APPROVAL_ROLE ( '' ) ;
#15 = VERTEX_POINT ( 'NONE', #206 ) ;
#16 = DIRECTION ( 'NONE',  ( 0.0000000000000000000, -0.0000000000000000000, 1.000000000000000000 ) ) ;
#17 = CC_DESIGN_APPROVAL ( #97, ( #106 ) ) ;
#18 = APPLICATION_PROTOCOL_DEFINITION ( 'international standard', 'config_control_design', 1994, #182 ) ;
#19 = VECTOR ( 'NONE', #140, 1000.000000000000000 ) ;
#20 = EDGE_CURVE ( 'NONE', #99, #76, #166, .T. ) ;
#21 = ORIENTED_EDGE ( 'NONE', *, *, #222, .F. ) ;
#22 = CLOSED_SHELL ( 'NONE', ( #126, #108, #70, #111, #183, #209 ) ) ;
#23 = DATE_AND_TIME ( #2, #53 ) ;
#24 = LINE ( 'NONE', #161, #169 ) ;
#25 = CARTESIAN_POINT ( 'NONE',  ( -12.49999999999999500, -12.50000000000000500, -3.000000000000000000 ) ) ;
#26 = CARTESIAN_POINT ( 'NONE',  ( -12.49999999999999500, -12.50000000000000500, 3.000000000000000000 ) ) ;
#27 = EDGE_CURVE ( 'NONE', #149, #105, #8, .T. ) ;
#28 = LOCAL_TIME ( 12, 13, 12.00000000000000000, #136 ) ;
#29 = DIRECTION ( 'NONE',  ( -1.000000000000000000, 0.0000000000000000000, 0.0000000000000000000 ) ) ;
#30 = LINE ( 'NONE', #25, #4 ) ;
#31 = VECTOR ( 'NONE', #141, 1000.000000000000000 ) ;
#32 = DIRECTION ( 'NONE',  ( 1.000000000000000000, 0.0000000000000000000, -0.0000000000000000000 ) ) ;
#33 = PLANE ( 'NONE',  #217 ) ;
#34 = PRODUCT_DEFINITION ( 'UNKNOWN', '', #106, #77 ) ;
#35 = COORDINATED_UNIVERSAL_TIME_OFFSET ( 5, 0, .BEHIND. ) ;
#36 = DIRECTION ( 'NONE',  ( 1.000000000000000000, 0.0000000000000000000, -0.0000000000000000000 ) ) ;
#37 = ORIENTED_EDGE ( 'NONE', *, *, #222, .T. ) ;
#38 = ORIENTED_EDGE ( 'NONE', *, *, #191, .F. ) ;
#39 = LINE ( 'NONE', #86, #31 ) ;
#40 = CC_DESIGN_PERSON_AND_ORGANIZATION_ASSIGNMENT ( #131, #200, ( #106 ) ) ;
#41 = ORIENTED_EDGE ( 'NONE', *, *, #134, .T. ) ;
#42 = DIRECTION ( 'NONE',  ( 1.000000000000000000, 0.0000000000000000000, 0.0000000000000000000 ) ) ;
#43 = DATE_AND_TIME ( #186, #67 ) ;
#44 = LINE ( 'NONE', #210, #225 ) ;
#45 = CC_DESIGN_DATE_AND_TIME_ASSIGNMENT ( #71, #1, ( #117 ) ) ;
#46 = PERSON_AND_ORGANIZATION ( #221, #204 ) ;
#47 = DIRECTION ( 'NONE',  ( -1.000000000000000000, -1.387778780781445400E-016, 0.0000000000000000000 ) ) ;
#48 = PLANE ( 'NONE',  #129 ) ;
#49 = EDGE_CURVE ( 'NONE', #15, #139, #39, .T. ) ;
#50 = CARTESIAN_POINT ( 'NONE',  ( -12.49999999999999500, 12.49999999999999500, 3.000000000000000000 ) ) ;
#51 = APPROVAL_STATUS ( 'not_yet_approved' ) ;
#52 = CARTESIAN_POINT ( 'NONE',  ( -12.49999999999999500, -12.50000000000000500, 3.000000000000000000 ) ) ;
#53 = LOCAL_TIME ( 12, 13, 12.00000000000000000, #137 ) ;
#54 = ORIENTED_EDGE ( 'NONE', *, *, #6, .F. ) ;
#55 = EDGE_CURVE ( 'NONE', #139, #220, #116, .T. ) ;
#56 = DIRECTION ( 'NONE',  ( 0.0000000000000000000, -0.0000000000000000000, 1.000000000000000000 ) ) ;
#57 = AXIS2_PLACEMENT_3D ( 'NONE', #26, #227, #195 ) ;
#58 = EDGE_LOOP ( 'NONE', ( #125, #21, #64, #135 ) ) ;
#59 = COORDINATED_UNIVERSAL_TIME_OFFSET ( 5, 0, .BEHIND. ) ;
#60 = PERSON_AND_ORGANIZATION_ROLE ( 'creator' ) ;
#61 = ORIENTED_EDGE ( 'NONE', *, *, #55, .F. ) ;
#62 = EDGE_CURVE ( 'NONE', #87, #76, #72, .T. ) ;
#63 = PERSON_AND_ORGANIZATION ( #221, #204 ) ;
#64 = ORIENTED_EDGE ( 'NONE', *, *, #49, .F. ) ;
#65 = CARTESIAN_POINT ( 'NONE',  ( 12.50000000000000500, -12.50000000000000200, 3.000000000000000000 ) ) ;
#66 = CARTESIAN_POINT ( 'NONE',  ( 12.50000000000000500, -12.50000000000000200, -3.000000000000000000 ) ) ;
#67 = LOCAL_TIME ( 12, 13, 12.00000000000000000, #218 ) ;
#68 = CC_DESIGN_PERSON_AND_ORGANIZATION_ASSIGNMENT ( #46, #60, ( #34 ) ) ;
#69 = ADVANCED_BREP_SHAPE_REPRESENTATION ( 'Web Model 37128MX_37138', ( #78, #164 ), #151 ) ;
#70 = ADVANCED_FACE ( 'NONE', ( #205 ), #48, .F. ) ;
#71 = DATE_AND_TIME ( #91, #28 ) ;
#72 = LINE ( 'NONE', #11, #124 ) ;
#73 = ORIENTED_EDGE ( 'NONE', *, *, #49, .T. ) ;
#74 = APPROVAL_ROLE ( '' ) ;
#75 = EDGE_LOOP ( 'NONE', ( #128, #54, #61, #37 ) ) ;
#76 = VERTEX_POINT ( 'NONE', #10 ) ;
#77 = DESIGN_CONTEXT ( 'detailed design', #219, 'design' ) ;
#78 = MANIFOLD_SOLID_BREP ( 'Boss-Extrude1', #22 ) ;
#79 = AXIS2_PLACEMENT_3D ( 'NONE', #104, #16, #32 ) ;
#80 = ORIENTED_EDGE ( 'NONE', *, *, #62, .T. ) ;
#81 = DIRECTION ( 'NONE',  ( 1.387778780781445400E-016, -1.000000000000000000, 0.0000000000000000000 ) ) ;
#82 = ORIENTED_EDGE ( 'NONE', *, *, #208, .T. ) ;
#83 = DIRECTION ( 'NONE',  ( 1.000000000000000000, 1.387778780781445400E-016, 0.0000000000000000000 ) ) ;
#84 = DIRECTION ( 'NONE',  ( -0.0000000000000000000, -1.000000000000000000, -0.0000000000000000000 ) ) ;
#85 = LOCAL_TIME ( 12, 13, 12.00000000000000000, #59 ) ;
#86 = CARTESIAN_POINT ( 'NONE',  ( 12.50000000000000500, -12.50000000000000200, 3.000000000000000000 ) ) ;
#87 = VERTEX_POINT ( 'NONE', #50 ) ;
#88 = MECHANICAL_CONTEXT ( 'NONE', #182, 'mechanical' ) ;
#89 = DATE_TIME_ROLE ( 'creation_date' ) ;
#90 = PERSON_AND_ORGANIZATION ( #221, #204 ) ;
#91 = CALENDAR_DATE ( 2018, 8, 5 ) ;
#92 = VECTOR ( 'NONE', #226, 1000.000000000000000 ) ;
#93 = ORIENTED_EDGE ( 'NONE', *, *, #110, .T. ) ;
#94 = DIRECTION ( 'NONE',  ( -1.000000000000000000, -1.387778780781445700E-016, 0.0000000000000000000 ) ) ;
#95 = CC_DESIGN_APPROVAL ( #170, ( #34 ) ) ;
#96 = PERSON_AND_ORGANIZATION ( #221, #204 ) ;
#97 = APPROVAL ( #143, 'UNSPECIFIED' ) ;
#98 = VECTOR ( 'NONE', #229, 1000.000000000000000 ) ;
#99 = VERTEX_POINT ( 'NONE', #179 ) ;
#100 = DIRECTION ( 'NONE',  ( -0.0000000000000000000, -0.0000000000000000000, -1.000000000000000000 ) ) ;
#101 = PLANE ( 'NONE',  #57 ) ;
#102 = AXIS2_PLACEMENT_3D ( 'NONE', #9, #138, #47 ) ;
#103 = CALENDAR_DATE ( 2018, 8, 5 ) ;
#104 = CARTESIAN_POINT ( 'NONE',  ( 0.0000000000000000000, 0.0000000000000000000, 3.000000000000000000 ) ) ;
#105 = VERTEX_POINT ( 'NONE', #224 ) ;
#106 = PRODUCT_DEFINITION_FORMATION_WITH_SPECIFIED_SOURCE ( 'ANY', '', #112, .NOT_KNOWN. ) ;
#107 = DIRECTION ( 'NONE',  ( 0.0000000000000000000, 0.0000000000000000000, 1.000000000000000000 ) ) ;
#108 = ADVANCED_FACE ( 'NONE', ( #202 ), #194, .F. ) ;
#109 = LINE ( 'NONE', #155, #92 ) ;
#110 = EDGE_CURVE ( 'NONE', #87, #15, #109, .T. ) ;
#111 = ADVANCED_FACE ( 'NONE', ( #178 ), #175, .F. ) ;
#112 = PRODUCT ( 'Web Model 37128MX_37138', 'Web Model 37128MX_37138', '', ( #88 ) ) ;
#113 = CC_DESIGN_PERSON_AND_ORGANIZATION_ASSIGNMENT ( #63, #201, ( #117 ) ) ;
#114 = CARTESIAN_POINT ( 'NONE',  ( -12.49999999999999500, -12.50000000000000500, -3.000000000000000000 ) ) ;
#115 = ORIENTED_EDGE ( 'NONE', *, *, #208, .F. ) ;
#116 = LINE ( 'NONE', #118, #163 ) ;
#117 = SECURITY_CLASSIFICATION ( '', '', #185 ) ;
#118 = CARTESIAN_POINT ( 'NONE',  ( 12.50000000000000500, -12.50000000000000200, 3.000000000000000000 ) ) ;
#119 = VECTOR ( 'NONE', #147, 1000.000000000000000 ) ;
#120 = EDGE_LOOP ( 'NONE', ( #150, #180, #115, #223 ) ) ;
#121 = CC_DESIGN_DATE_AND_TIME_ASSIGNMENT ( #215, #89, ( #34 ) ) ;
#122 = VECTOR ( 'NONE', #100, 1000.000000000000000 ) ;
#123 =( NAMED_UNIT ( * ) SI_UNIT ( $, .STERADIAN. ) SOLID_ANGLE_UNIT ( ) );
#124 = VECTOR ( 'NONE', #176, 1000.000000000000000 ) ;
#125 = ORIENTED_EDGE ( 'NONE', *, *, #27, .T. ) ;
#126 = ADVANCED_FACE ( 'NONE', ( #146 ), #101, .F. ) ;
#127 = PERSON_AND_ORGANIZATION ( #221, #204 ) ;
#128 = ORIENTED_EDGE ( 'NONE', *, *, #191, .T. ) ;
#129 = AXIS2_PLACEMENT_3D ( 'NONE', #65, #29, #207 ) ;
#130 = APPROVAL_STATUS ( 'not_yet_approved' ) ;
#131 = PERSON_AND_ORGANIZATION ( #221, #204 ) ;
#132 = FACE_OUTER_BOUND ( 'NONE', #168, .T. ) ;
#133 = EDGE_LOOP ( 'NONE', ( #93, #73, #154, #82 ) ) ;
#134 = EDGE_CURVE ( 'NONE', #76, #149, #30, .T. ) ;
#135 = ORIENTED_EDGE ( 'NONE', *, *, #228, .T. ) ;
#136 = COORDINATED_UNIVERSAL_TIME_OFFSET ( 5, 0, .BEHIND. ) ;
#137 = COORDINATED_UNIVERSAL_TIME_OFFSET ( 5, 0, .BEHIND. ) ;
#138 = DIRECTION ( 'NONE',  ( -1.387778780781445400E-016, 1.000000000000000000, 0.0000000000000000000 ) ) ;
#139 = VERTEX_POINT ( 'NONE', #152 ) ;
#140 = DIRECTION ( 'NONE',  ( -1.000000000000000000, -1.387778780781445700E-016, 0.0000000000000000000 ) ) ;
#141 = DIRECTION ( 'NONE',  ( 1.000000000000000000, 1.387778780781445700E-016, -0.0000000000000000000 ) ) ;
#142 = DIRECTION ( 'NONE',  ( -0.0000000000000000000, -0.0000000000000000000, -1.000000000000000000 ) ) ;
#143 = APPROVAL_STATUS ( 'not_yet_approved' ) ;
#144 = APPROVAL_DATE_TIME ( #23, #170 ) ;
#145 = PLANE ( 'NONE',  #79 ) ;
#146 = FACE_OUTER_BOUND ( 'NONE', #230, .T. ) ;
#147 = DIRECTION ( 'NONE',  ( -0.0000000000000000000, -0.0000000000000000000, -1.000000000000000000 ) ) ;
#148 = APPROVAL_PERSON_ORGANIZATION ( #198, #170, #14 ) ;
#149 = VERTEX_POINT ( 'NONE', #114 ) ;
#150 = ORIENTED_EDGE ( 'NONE', *, *, #20, .T. ) ;
#151 =( GEOMETRIC_REPRESENTATION_CONTEXT ( 3 ) GLOBAL_UNCERTAINTY_ASSIGNED_CONTEXT ( ( #173 ) ) GLOBAL_UNIT_ASSIGNED_CONTEXT ( ( #12, #167, #123 ) ) REPRESENTATION_CONTEXT ( 'NONE', 'WORKASPACE' ) );
#152 = CARTESIAN_POINT ( 'NONE',  ( 12.50000000000000500, -12.50000000000000200, 3.000000000000000000 ) ) ;
#153 = DIRECTION ( 'NONE',  ( 0.0000000000000000000, 1.000000000000000000, 0.0000000000000000000 ) ) ;
#154 = ORIENTED_EDGE ( 'NONE', *, *, #55, .T. ) ;
#155 = CARTESIAN_POINT ( 'NONE',  ( -12.49999999999999500, -12.50000000000000500, 3.000000000000000000 ) ) ;
#156 = CARTESIAN_POINT ( 'NONE',  ( 12.50000000000000500, 12.49999999999999800, 3.000000000000000000 ) ) ;
#157 = CALENDAR_DATE ( 2018, 8, 5 ) ;
#158 = DIRECTION ( 'NONE',  ( 0.0000000000000000000, 1.000000000000000000, 0.0000000000000000000 ) ) ;
#159 = AXIS2_PLACEMENT_3D ( 'NONE', #193, #81, #83 ) ;
#160 = ORIENTED_EDGE ( 'NONE', *, *, #27, .F. ) ;
#161 = CARTESIAN_POINT ( 'NONE',  ( 12.50000000000000500, -12.50000000000000200, 3.000000000000000000 ) ) ;
#162 = APPROVAL_ROLE ( '' ) ;
#163 = VECTOR ( 'NONE', #153, 1000.000000000000000 ) ;
#164 = AXIS2_PLACEMENT_3D ( 'NONE', #214, #107, #42 ) ;
#165 = LINE ( 'NONE', #199, #235 ) ;
#166 = LINE ( 'NONE', #211, #19 ) ;
#167 =( NAMED_UNIT ( * ) PLANE_ANGLE_UNIT ( ) SI_UNIT ( $, .RADIAN. ) );
#168 = EDGE_LOOP ( 'NONE', ( #236, #5, #38, #160 ) ) ;
#169 = VECTOR ( 'NONE', #142, 1000.000000000000000 ) ;
#170 = APPROVAL ( #51, 'UNSPECIFIED' ) ;
#171 = APPROVAL_DATE_TIME ( #43, #188 ) ;
#172 = LINE ( 'NONE', #156, #122 ) ;
#173 = UNCERTAINTY_MEASURE_WITH_UNIT (LENGTH_MEASURE( 1.000000000000000100E-005 ), #12, 'distance_accuracy_value', 'NONE');
#174 = LOCAL_TIME ( 12, 13, 12.00000000000000000, #35 ) ;
#175 = PLANE ( 'NONE',  #159 ) ;
#176 = DIRECTION ( 'NONE',  ( -0.0000000000000000000, -0.0000000000000000000, -1.000000000000000000 ) ) ;
#177 = CC_DESIGN_PERSON_AND_ORGANIZATION_ASSIGNMENT ( #127, #237, ( #106 ) ) ;
#178 = FACE_OUTER_BOUND ( 'NONE', #120, .T. ) ;
#179 = CARTESIAN_POINT ( 'NONE',  ( 12.50000000000000500, 12.49999999999999800, -3.000000000000000000 ) ) ;
#180 = ORIENTED_EDGE ( 'NONE', *, *, #62, .F. ) ;
#181 = PERSON_AND_ORGANIZATION_ROLE ( 'design_owner' ) ;
#182 = APPLICATION_CONTEXT ( 'configuration controlled 3d designs of mechanical parts and assemblies' ) ;
#183 = ADVANCED_FACE ( 'NONE', ( #196 ), #145, .T. ) ;
#184 = ORIENTED_EDGE ( 'NONE', *, *, #228, .F. ) ;
#185 = SECURITY_CLASSIFICATION_LEVEL ( 'unclassified' ) ;
#186 = CALENDAR_DATE ( 2018, 8, 5 ) ;
#187 = APPROVAL_PERSON_ORGANIZATION ( #96, #97, #162 ) ;
#188 = APPROVAL ( #130, 'UNSPECIFIED' ) ;
#189 = APPROVAL_PERSON_ORGANIZATION ( #90, #188, #74 ) ;
#190 = ORIENTED_EDGE ( 'NONE', *, *, #110, .F. ) ;
#191 = EDGE_CURVE ( 'NONE', #105, #99, #165, .T. ) ;
#192 = DATE_AND_TIME ( #157, #85 ) ;
#193 = CARTESIAN_POINT ( 'NONE',  ( 12.50000000000000500, 12.49999999999999800, 3.000000000000000000 ) ) ;
#194 = PLANE ( 'NONE',  #102 ) ;
#195 = DIRECTION ( 'NONE',  ( 0.0000000000000000000, 0.0000000000000000000, -1.000000000000000000 ) ) ;
#196 = FACE_OUTER_BOUND ( 'NONE', #133, .T. ) ;
#197 = CC_DESIGN_APPROVAL ( #188, ( #117 ) ) ;
#198 = PERSON_AND_ORGANIZATION ( #221, #204 ) ;
#199 = CARTESIAN_POINT ( 'NONE',  ( 12.50000000000000500, -12.50000000000000200, -3.000000000000000000 ) ) ;
#200 = PERSON_AND_ORGANIZATION_ROLE ( 'design_supplier' ) ;
#201 = PERSON_AND_ORGANIZATION_ROLE ( 'classification_officer' ) ;
#202 = FACE_OUTER_BOUND ( 'NONE', #58, .T. ) ;
#203 = CC_DESIGN_SECURITY_CLASSIFICATION ( #117, ( #106 ) ) ;
#204 = ORGANIZATION ( 'UNSPECIFIED', 'UNSPECIFIED', '' ) ;
#205 = FACE_OUTER_BOUND ( 'NONE', #75, .T. ) ;
#206 = CARTESIAN_POINT ( 'NONE',  ( -12.49999999999999500, -12.50000000000000500, 3.000000000000000000 ) ) ;
#207 = DIRECTION ( 'NONE',  ( 0.0000000000000000000, 0.0000000000000000000, 1.000000000000000000 ) ) ;
#208 = EDGE_CURVE ( 'NONE', #220, #87, #44, .T. ) ;
#209 = ADVANCED_FACE ( 'NONE', ( #132 ), #33, .F. ) ;
#210 = CARTESIAN_POINT ( 'NONE',  ( 12.50000000000000500, 12.49999999999999800, 3.000000000000000000 ) ) ;
#211 = CARTESIAN_POINT ( 'NONE',  ( 12.50000000000000500, 12.49999999999999800, -3.000000000000000000 ) ) ;
#212 = PRODUCT_RELATED_PRODUCT_CATEGORY ( 'detail', '', ( #112 ) ) ;
#213 = APPLICATION_PROTOCOL_DEFINITION ( 'international standard', 'config_control_design', 1994, #219 ) ;
#214 = CARTESIAN_POINT ( 'NONE',  ( 0.0000000000000000000, 0.0000000000000000000, 0.0000000000000000000 ) ) ;
#215 = DATE_AND_TIME ( #103, #174 ) ;
#216 = LINE ( 'NONE', #52, #119 ) ;
#217 = AXIS2_PLACEMENT_3D ( 'NONE', #234, #56, #36 ) ;
#218 = COORDINATED_UNIVERSAL_TIME_OFFSET ( 5, 0, .BEHIND. ) ;
#219 = APPLICATION_CONTEXT ( 'configuration controlled 3d designs of mechanical parts and assemblies' ) ;
#220 = VERTEX_POINT ( 'NONE', #231 ) ;
#221 = PERSON ( 'UNSPECIFIED', 'UNSPECIFIED', 'UNSPECIFIED', ('UNSPECIFIED'), ('UNSPECIFIED'), ('UNSPECIFIED') ) ;
#222 = EDGE_CURVE ( 'NONE', #139, #105, #24, .T. ) ;
#223 = ORIENTED_EDGE ( 'NONE', *, *, #6, .T. ) ;
#224 = CARTESIAN_POINT ( 'NONE',  ( 12.50000000000000500, -12.50000000000000200, -3.000000000000000000 ) ) ;
#225 = VECTOR ( 'NONE', #94, 1000.000000000000000 ) ;
#226 = DIRECTION ( 'NONE',  ( -0.0000000000000000000, -1.000000000000000000, -0.0000000000000000000 ) ) ;
#227 = DIRECTION ( 'NONE',  ( 1.000000000000000000, 0.0000000000000000000, 0.0000000000000000000 ) ) ;
#228 = EDGE_CURVE ( 'NONE', #15, #149, #216, .T. ) ;
#229 = DIRECTION ( 'NONE',  ( 1.000000000000000000, 1.387778780781445700E-016, -0.0000000000000000000 ) ) ;
#230 = EDGE_LOOP ( 'NONE', ( #41, #184, #190, #80 ) ) ;
#231 = CARTESIAN_POINT ( 'NONE',  ( 12.50000000000000500, 12.49999999999999800, 3.000000000000000000 ) ) ;
#232 = PRODUCT_DEFINITION_SHAPE ( 'NONE', 'NONE',  #34 ) ;
#233 = APPROVAL_DATE_TIME ( #192, #97 ) ;
#234 = CARTESIAN_POINT ( 'NONE',  ( 0.0000000000000000000, 0.0000000000000000000, -3.000000000000000000 ) ) ;
#235 = VECTOR ( 'NONE', #158, 1000.000000000000000 ) ;
#236 = ORIENTED_EDGE ( 'NONE', *, *, #134, .F. ) ;
#237 = PERSON_AND_ORGANIZATION_ROLE ( 'creator' ) ;
ENDSEC;
END-ISO-10303-21;
