ISO-10303-21;
HEADER;
FILE_DESCRIPTION (( 'STEP AP203' ),
    '1' );
FILE_NAME ('20113-E0W.STEP',
    '2009-09-14T20:27:48',
    ( 'Admin' ),
    ( 'Thorlabs, Inc.' ),
    'SwSTEP 2.0',
    'SolidWorks 2007',
    '' );
FILE_SCHEMA (( 'CONFIG_CONTROL_DESIGN' ));
ENDSEC;

DATA;
#1 = SHAPE_DEFINITION_REPRESENTATION ( #79, #178 ) ;
#2 = ADVANCED_FACE ( 'NONE', ( #74 ), #108, .T. ) ;
#3 = EDGE_LOOP ( 'NONE', ( #78, #59, #23 ) ) ;
#4 = EDGE_CURVE ( 'NONE', #24, #6, #50, .T. ) ;
#5 = VERTEX_POINT ( 'NONE', #54 ) ;
#6 = VERTEX_POINT ( 'NONE', #45 ) ;
#7 = VERTEX_POINT ( 'NONE', #70 ) ;
#8 = ORIENTED_EDGE ( 'NONE', *, *, #105, .F. ) ;
#9 = ORIENTED_EDGE ( 'NONE', *, *, #26, .F. ) ;
#10 = ADVANCED_FACE ( 'NONE', ( #69 ), #68, .T. ) ;
#11 = EDGE_LOOP ( 'NONE', ( #12, #109 ) ) ;
#12 = ORIENTED_EDGE ( 'NONE', *, *, #105, .T. ) ;
#13 = DIRECTION ( 'NONE',  ( 0.0000000000000000000, 3.061515884555943100E-016, -1.000000000000000000 ) ) ;
#14 = VECTOR ( 'NONE', #13, 1000.000000000000000 ) ;
#15 = CARTESIAN_POINT ( 'NONE',  ( 7.776250346772101300E-016, -6.350000000000004100, -1.225000000000002100 ) ) ;
#16 = LINE ( 'NONE', #15, #14 ) ;
#17 = DIRECTION ( 'NONE',  ( 0.0000000000000000000, 1.000000000000000000, 3.073328992872293400E-016 ) ) ;
#18 = DIRECTION ( 'NONE',  ( 0.0000000000000000000, 3.061515884555943100E-016, -1.000000000000000000 ) ) ;
#19 = CARTESIAN_POINT ( 'NONE',  ( 0.0000000000000000000, 4.751472652830824800E-016, -1.225000000000000100 ) ) ;
#20 = AXIS2_PLACEMENT_3D ( 'NONE', #19, #18, #17 ) ;
#21 = ADVANCED_FACE ( 'NONE', ( #66 ), #36, .T. ) ;
#22 = ADVANCED_FACE ( 'NONE', ( #37 ), #33, .T. ) ;
#23 = ORIENTED_EDGE ( 'NONE', *, *, #77, .F. ) ;
#24 = VERTEX_POINT ( 'NONE', #32 ) ;
#25 = ORIENTED_EDGE ( 'NONE', *, *, #26, .T. ) ;
#26 = EDGE_CURVE ( 'NONE', #6, #7, #16, .T. ) ;
#27 = ORIENTED_EDGE ( 'NONE', *, *, #75, .F. ) ;
#28 = ORIENTED_EDGE ( 'NONE', *, *, #30, .F. ) ;
#29 = ORIENTED_EDGE ( 'NONE', *, *, #4, .F. ) ;
#30 = EDGE_CURVE ( 'NONE', #6, #5, #102, .T. ) ;
#31 = EDGE_LOOP ( 'NONE', ( #9, #52, #53, #67 ) ) ;
#32 = CARTESIAN_POINT ( 'NONE',  ( 0.0000000000000000000, -5.792755435486029000E-015, 1.224999999999920600 ) ) ;
#33 = CYLINDRICAL_SURFACE ( 'NONE', #20, 6.350000000000005000 ) ;
#34 = DIRECTION ( 'NONE',  ( 0.0000000000000000000, 1.000000000000000000, 3.073328992872293400E-016 ) ) ;
#35 = AXIS2_PLACEMENT_3D ( 'NONE', #60, #61, #34 ) ;
#36 = CYLINDRICAL_SURFACE ( 'NONE', #35, 6.350000000000005000 ) ;
#37 = FACE_OUTER_BOUND ( 'NONE', #110, .T. ) ;
#38 = SPHERICAL_SURFACE ( 'NONE', #97, 45.05800000000015600 ) ;
#39 = CARTESIAN_POINT ( 'NONE',  ( 0.0000000000000000000, 5.242907182619742700E-015, -43.83300000000023300 ) ) ;
#40 = DIRECTION ( 'NONE',  ( 0.0000000000000000000, 0.0000000000000000000, 1.000000000000000000 ) ) ;
#41 = DIRECTION ( 'NONE',  ( -1.000000000000000000, 0.0000000000000000000, 0.0000000000000000000 ) ) ;
#42 = AXIS2_PLACEMENT_3D ( 'NONE', #103, #41, #40 ) ;
#43 = CIRCLE ( 'NONE', #42, 45.05800000000015600 ) ;
#44 = FACE_OUTER_BOUND ( 'NONE', #71, .T. ) ;
#45 = CARTESIAN_POINT ( 'NONE',  ( 7.776250346772114100E-016, -6.350000000000022700, 0.7753048770068448100 ) ) ;
#46 = DIRECTION ( 'NONE',  ( -1.224606353822377300E-016, 1.000000000000000000, 0.0000000000000000000 ) ) ;
#47 = DIRECTION ( 'NONE',  ( 1.000000000000000000, 1.224606353822377300E-016, 3.749151804555343600E-032 ) ) ;
#48 = CARTESIAN_POINT ( 'NONE',  ( 0.0000000000000000000, 5.242907182619742700E-015, -43.83300000000023300 ) ) ;
#49 = AXIS2_PLACEMENT_3D ( 'NONE', #48, #47, #46 ) ;
#50 = CIRCLE ( 'NONE', #49, 45.05800000000015600 ) ;
#51 = CLOSED_SHELL ( 'NONE', ( #22, #2, #10, #73, #21 ) ) ;
#52 = ORIENTED_EDGE ( 'NONE', *, *, #30, .T. ) ;
#53 = ORIENTED_EDGE ( 'NONE', *, *, #75, .T. ) ;
#54 = CARTESIAN_POINT ( 'NONE',  ( 0.0000000000000000000, 6.350000000000014700, 0.7753048770068468000 ) ) ;
#55 = DIRECTION ( 'NONE',  ( 0.0000000000000000000, 1.000000000000000000, 3.079983090198058000E-016 ) ) ;
#56 = DIRECTION ( 'NONE',  ( 1.000000000000000000, 0.0000000000000000000, 0.0000000000000000000 ) ) ;
#57 = AXIS2_PLACEMENT_3D ( 'NONE', #107, #56, #55 ) ;
#58 = EDGE_CURVE ( 'NONE', #24, #5, #43, .T. ) ;
#59 = ORIENTED_EDGE ( 'NONE', *, *, #4, .T. ) ;
#60 = CARTESIAN_POINT ( 'NONE',  ( 0.0000000000000000000, 4.751472652830824800E-016, -1.225000000000000100 ) ) ;
#61 = DIRECTION ( 'NONE',  ( 0.0000000000000000000, 3.061515884555943100E-016, -1.000000000000000000 ) ) ;
#62 = DIRECTION ( 'NONE',  ( 0.0000000000000000000, 1.000000000000000000, 3.061515884555943100E-016 ) ) ;
#63 = DIRECTION ( 'NONE',  ( 0.0000000000000000000, 3.061515884555943100E-016, -1.000000000000000000 ) ) ;
#64 = CARTESIAN_POINT ( 'NONE',  ( 0.0000000000000000000, 4.751472652830827700E-016, -1.225000000000001000 ) ) ;
#65 = AXIS2_PLACEMENT_3D ( 'NONE', #64, #63, #62 ) ;
#66 = FACE_OUTER_BOUND ( 'NONE', #31, .T. ) ;
#67 = ORIENTED_EDGE ( 'NONE', *, *, #104, .F. ) ;
#68 = PLANE ( 'NONE',  #65 ) ;
#69 = FACE_OUTER_BOUND ( 'NONE', #11, .T. ) ;
#70 = CARTESIAN_POINT ( 'NONE',  ( 7.776250346772097400E-016, -6.349999999999997900, -1.225000000000004100 ) ) ;
#71 = EDGE_LOOP ( 'NONE', ( #29, #72, #28 ) ) ;
#72 = ORIENTED_EDGE ( 'NONE', *, *, #58, .T. ) ;
#73 = ADVANCED_FACE ( 'NONE', ( #44 ), #38, .T. ) ;
#74 = FACE_OUTER_BOUND ( 'NONE', #3, .T. ) ;
#75 = EDGE_CURVE ( 'NONE', #5, #106, #94, .T. ) ;
#76 = ORIENTED_EDGE ( 'NONE', *, *, #77, .T. ) ;
#77 = EDGE_CURVE ( 'NONE', #5, #6, #89, .T. ) ;
#78 = ORIENTED_EDGE ( 'NONE', *, *, #58, .F. ) ;
#79 = PRODUCT_DEFINITION_SHAPE ( 'NONE', 'NONE',  #197 ) ;
#80 = DIRECTION ( 'NONE',  ( 0.0000000000000000000, 1.000000000000000000, 3.073328992872296900E-016 ) ) ;
#81 = DIRECTION ( 'NONE',  ( 0.0000000000000000000, 3.061515884555943100E-016, -1.000000000000000000 ) ) ;
#82 = AXIS2_PLACEMENT_3D ( 'NONE', #90, #81, #80 ) ;
#83 = CIRCLE ( 'NONE', #82, 6.349999999999998800 ) ;
#84 = PRODUCT_RELATED_PRODUCT_CATEGORY ( 'detail', '', ( #144 ) ) ;
#85 = DIRECTION ( 'NONE',  ( 0.0000000000000000000, 1.000000000000000000, 3.073328992872290900E-016 ) ) ;
#86 = DIRECTION ( 'NONE',  ( 0.0000000000000000000, 3.061515884555943100E-016, -1.000000000000000000 ) ) ;
#87 = CARTESIAN_POINT ( 'NONE',  ( 0.0000000000000000000, -1.372492502080354400E-016, 0.7753048770068450300 ) ) ;
#88 = AXIS2_PLACEMENT_3D ( 'NONE', #87, #86, #85 ) ;
#89 = CIRCLE ( 'NONE', #88, 6.350000000000010300 ) ;
#90 = CARTESIAN_POINT ( 'NONE',  ( 0.0000000000000000000, 4.751472652830830700E-016, -1.225000000000002100 ) ) ;
#91 = DIRECTION ( 'NONE',  ( 0.0000000000000000000, 3.061515884555943100E-016, -1.000000000000000000 ) ) ;
#92 = VECTOR ( 'NONE', #91, 1000.000000000000000 ) ;
#93 = CARTESIAN_POINT ( 'NONE',  ( 0.0000000000000000000, 6.350000000000005900, -1.224999999999998300 ) ) ;
#94 = LINE ( 'NONE', #93, #92 ) ;
#95 = DIRECTION ( 'NONE',  ( 0.0000000000000000000, 1.000000000000000000, 3.079983090198058000E-016 ) ) ;
#96 = DIRECTION ( 'NONE',  ( 1.000000000000000000, 0.0000000000000000000, 0.0000000000000000000 ) ) ;
#97 = AXIS2_PLACEMENT_3D ( 'NONE', #39, #96, #95 ) ;
#98 = DIRECTION ( 'NONE',  ( 0.0000000000000000000, 1.000000000000000000, 3.073328992872290900E-016 ) ) ;
#99 = DIRECTION ( 'NONE',  ( 0.0000000000000000000, 3.061515884555943100E-016, -1.000000000000000000 ) ) ;
#100 = CARTESIAN_POINT ( 'NONE',  ( 0.0000000000000000000, -1.372492502080354400E-016, 0.7753048770068450300 ) ) ;
#101 = AXIS2_PLACEMENT_3D ( 'NONE', #100, #99, #98 ) ;
#102 = CIRCLE ( 'NONE', #101, 6.350000000000010300 ) ;
#103 = CARTESIAN_POINT ( 'NONE',  ( 0.0000000000000000000, 5.242907182619742700E-015, -43.83300000000023300 ) ) ;
#104 = EDGE_CURVE ( 'NONE', #7, #106, #83, .T. ) ;
#105 = EDGE_CURVE ( 'NONE', #106, #7, #130, .T. ) ;
#106 = VERTEX_POINT ( 'NONE', #163 ) ;
#107 = CARTESIAN_POINT ( 'NONE',  ( 0.0000000000000000000, 5.242907182619742700E-015, -43.83300000000023300 ) ) ;
#108 = SPHERICAL_SURFACE ( 'NONE', #57, 45.05800000000015600 ) ;
#109 = ORIENTED_EDGE ( 'NONE', *, *, #104, .T. ) ;
#110 = EDGE_LOOP ( 'NONE', ( #76, #25, #8, #27 ) ) ;
#111 = MANIFOLD_SOLID_BREP ( 'NONE', #51 ) ;
#112 = DIRECTION ( 'NONE',  ( 0.0000000000000000000, 3.061515884555943100E-016, -1.000000000000000000 ) ) ;
#113 =( LENGTH_UNIT ( ) NAMED_UNIT ( * ) SI_UNIT ( .MILLI., .METRE. ) );
#114 = CC_DESIGN_PERSON_AND_ORGANIZATION_ASSIGNMENT ( #116, #115, ( #154 ) ) ;
#115 = PERSON_AND_ORGANIZATION_ROLE ( 'design_supplier' ) ;
#116 = PERSON_AND_ORGANIZATION ( #149, #183 ) ;
#117 = CC_DESIGN_PERSON_AND_ORGANIZATION_ASSIGNMENT ( #119, #118, ( #154 ) ) ;
#118 = PERSON_AND_ORGANIZATION_ROLE ( 'creator' ) ;
#119 = PERSON_AND_ORGANIZATION ( #149, #183 ) ;
#120 = CC_DESIGN_APPROVAL ( #128, ( #154 ) ) ;
#121 = APPROVAL_DATE_TIME ( #122, #128 ) ;
#122 = DATE_AND_TIME ( #123, #124 ) ;
#123 = CALENDAR_DATE ( 2009, 14, 9 ) ;
#124 = LOCAL_TIME ( 16, 27, 48.00000000000000000, #125 ) ;
#125 = COORDINATED_UNIVERSAL_TIME_OFFSET ( 5, 0, .BEHIND. ) ;
#126 = APPROVAL_PERSON_ORGANIZATION ( #153, #128, #127 ) ;
#127 = APPROVAL_ROLE ( '' ) ;
#128 = APPROVAL ( #152, 'UNSPECIFIED' ) ;
#129 = CARTESIAN_POINT ( 'NONE',  ( 0.0000000000000000000, 4.751472652830830700E-016, -1.225000000000002100 ) ) ;
#130 = CIRCLE ( 'NONE', #150, 6.349999999999998800 ) ;
#131 =( NAMED_UNIT ( * ) PLANE_ANGLE_UNIT ( ) SI_UNIT ( $, .RADIAN. ) );
#132 =( NAMED_UNIT ( * ) SI_UNIT ( $, .STERADIAN. ) SOLID_ANGLE_UNIT ( ) );
#133 = CC_DESIGN_SECURITY_CLASSIFICATION ( #176, ( #154 ) ) ;
#134 = CC_DESIGN_APPROVAL ( #142, ( #176 ) ) ;
#135 = APPROVAL_DATE_TIME ( #136, #142 ) ;
#136 = DATE_AND_TIME ( #137, #138 ) ;
#137 = CALENDAR_DATE ( 2009, 14, 9 ) ;
#138 = LOCAL_TIME ( 16, 27, 48.00000000000000000, #139 ) ;
#139 = COORDINATED_UNIVERSAL_TIME_OFFSET ( 5, 0, .BEHIND. ) ;
#140 = APPROVAL_PERSON_ORGANIZATION ( #166, #142, #141 ) ;
#141 = APPROVAL_ROLE ( '' ) ;
#142 = APPROVAL ( #143, 'UNSPECIFIED' ) ;
#143 = APPROVAL_STATUS ( 'not_yet_approved' ) ;
#144 = PRODUCT ( '20113-E0W', '20113-E0W', '', ( #145 ) ) ;
#145 = MECHANICAL_CONTEXT ( 'NONE', #147, 'mechanical' ) ;
#146 = APPLICATION_PROTOCOL_DEFINITION ( 'international standard', 'config_control_design', 1994, #147 ) ;
#147 = APPLICATION_CONTEXT ( 'configuration controlled 3d designs of mechanical parts and assemblies' ) ;
#148 = AXIS2_PLACEMENT_3D ( 'NONE', #180, #164, #179 ) ;
#149 = PERSON ( 'UNSPECIFIED', 'UNSPECIFIED', 'UNSPECIFIED', ('UNSPECIFIED'), ('UNSPECIFIED'), ('UNSPECIFIED') ) ;
#150 = AXIS2_PLACEMENT_3D ( 'NONE', #129, #112, #184 ) ;
#151 = UNCERTAINTY_MEASURE_WITH_UNIT (LENGTH_MEASURE( 1.000000000000000100E-005 ), #113, 'distance_accuracy_value', 'NONE');
#152 = APPROVAL_STATUS ( 'not_yet_approved' ) ;
#153 = PERSON_AND_ORGANIZATION ( #149, #183 ) ;
#154 = PRODUCT_DEFINITION_FORMATION_WITH_SPECIFIED_SOURCE ( 'ANY', '', #144, .NOT_KNOWN. ) ;
#155 = CC_DESIGN_DATE_AND_TIME_ASSIGNMENT ( #157, #156, ( #197 ) ) ;
#156 = DATE_TIME_ROLE ( 'creation_date' ) ;
#157 = DATE_AND_TIME ( #158, #159 ) ;
#158 = CALENDAR_DATE ( 2009, 14, 9 ) ;
#159 = LOCAL_TIME ( 16, 27, 48.00000000000000000, #160 ) ;
#160 = COORDINATED_UNIVERSAL_TIME_OFFSET ( 5, 0, .BEHIND. ) ;
#161 = CC_DESIGN_PERSON_AND_ORGANIZATION_ASSIGNMENT ( #185, #162, ( #197 ) ) ;
#162 = PERSON_AND_ORGANIZATION_ROLE ( 'creator' ) ;
#163 = CARTESIAN_POINT ( 'NONE',  ( 0.0000000000000000000, 6.349999999999999600, -1.225000000000000100 ) ) ;
#164 = DIRECTION ( 'NONE',  ( 0.0000000000000000000, 0.0000000000000000000, 1.000000000000000000 ) ) ;
#165 =( GEOMETRIC_REPRESENTATION_CONTEXT ( 3 ) GLOBAL_UNCERTAINTY_ASSIGNED_CONTEXT ( ( #151 ) ) GLOBAL_UNIT_ASSIGNED_CONTEXT ( ( #113, #131, #132 ) ) REPRESENTATION_CONTEXT ( 'NONE', 'WORKASPACE' ) );
#166 = PERSON_AND_ORGANIZATION ( #149, #183 ) ;
#167 = CC_DESIGN_DATE_AND_TIME_ASSIGNMENT ( #169, #168, ( #176 ) ) ;
#168 = DATE_TIME_ROLE ( 'classification_date' ) ;
#169 = DATE_AND_TIME ( #170, #171 ) ;
#170 = CALENDAR_DATE ( 2009, 14, 9 ) ;
#171 = LOCAL_TIME ( 16, 27, 48.00000000000000000, #172 ) ;
#172 = COORDINATED_UNIVERSAL_TIME_OFFSET ( 5, 0, .BEHIND. ) ;
#173 = CC_DESIGN_PERSON_AND_ORGANIZATION_ASSIGNMENT ( #175, #174, ( #176 ) ) ;
#174 = PERSON_AND_ORGANIZATION_ROLE ( 'classification_officer' ) ;
#175 = PERSON_AND_ORGANIZATION ( #149, #183 ) ;
#176 = SECURITY_CLASSIFICATION ( '', '', #177 ) ;
#177 = SECURITY_CLASSIFICATION_LEVEL ( 'unclassified' ) ;
#178 = ADVANCED_BREP_SHAPE_REPRESENTATION ( '20113-E0W', ( #111, #148 ), #165 ) ;
#179 = DIRECTION ( 'NONE',  ( 1.000000000000000000, 0.0000000000000000000, 0.0000000000000000000 ) ) ;
#180 = CARTESIAN_POINT ( 'NONE',  ( 0.0000000000000000000, 0.0000000000000000000, 0.0000000000000000000 ) ) ;
#181 = PERSON_AND_ORGANIZATION_ROLE ( 'design_owner' ) ;
#182 = PERSON_AND_ORGANIZATION ( #149, #183 ) ;
#183 = ORGANIZATION ( 'UNSPECIFIED', 'UNSPECIFIED', '' ) ;
#184 = DIRECTION ( 'NONE',  ( 0.0000000000000000000, 1.000000000000000000, 3.073328992872296900E-016 ) ) ;
#185 = PERSON_AND_ORGANIZATION ( #149, #183 ) ;
#186 = CC_DESIGN_APPROVAL ( #194, ( #197 ) ) ;
#187 = APPROVAL_DATE_TIME ( #188, #194 ) ;
#188 = DATE_AND_TIME ( #189, #190 ) ;
#189 = CALENDAR_DATE ( 2009, 14, 9 ) ;
#190 = LOCAL_TIME ( 16, 27, 48.00000000000000000, #191 ) ;
#191 = COORDINATED_UNIVERSAL_TIME_OFFSET ( 5, 0, .BEHIND. ) ;
#192 = APPROVAL_PERSON_ORGANIZATION ( #196, #194, #193 ) ;
#193 = APPROVAL_ROLE ( '' ) ;
#194 = APPROVAL ( #195, 'UNSPECIFIED' ) ;
#195 = APPROVAL_STATUS ( 'not_yet_approved' ) ;
#196 = PERSON_AND_ORGANIZATION ( #149, #183 ) ;
#197 = PRODUCT_DEFINITION ( 'UNKNOWN', '', #154, #198 ) ;
#198 = DESIGN_CONTEXT ( 'detailed design', #200, 'design' ) ;
#199 = APPLICATION_PROTOCOL_DEFINITION ( 'international standard', 'config_control_design', 1994, #200 ) ;
#200 = APPLICATION_CONTEXT ( 'configuration controlled 3d designs of mechanical parts and assemblies' ) ;
#201 = CC_DESIGN_PERSON_AND_ORGANIZATION_ASSIGNMENT ( #182, #181, ( #144 ) ) ;
ENDSEC;
END-ISO-10303-21;
