ISO-10303-21;
HEADER;
FILE_DESCRIPTION (( 'STEP AP203' ),
    '1' );
FILE_NAME ('20165-E0W.STEP',
    '2018-06-01T18:06:53',
    ( 'admin' ),
    ( '' ),
    'SwSTEP 2.0',
    'SolidWorks 2016',
    '' );
FILE_SCHEMA (( 'CONFIG_CONTROL_DESIGN' ));
ENDSEC;

DATA;
#1 = LINE ( 'NONE', #173, #301 ) ;
#2 = PERSON_AND_ORGANIZATION ( #269, #87 ) ;
#3 = APPROVAL ( #47, 'UNSPECIFIED' ) ;
#4 = EDGE_CURVE ( 'NONE', #160, #162, #92, .T. ) ;
#5 = DATE_AND_TIME ( #34, #104 ) ;
#6 = AXIS2_PLACEMENT_3D ( 'NONE', #305, #302, #53 ) ;
#7 = ORIENTED_EDGE ( 'NONE', *, *, #240, .F. ) ;
#8 = CARTESIAN_POINT ( 'NONE',  ( 0.0000000000000000000, 0.0000000000000000000, 1.474995732477029300 ) ) ;
#9 = LINE ( 'NONE', #228, #289 ) ;
#10 = PRODUCT_DEFINITION_FORMATION_WITH_SPECIFIED_SOURCE ( 'ANY', '', #12, .NOT_KNOWN. ) ;
#11 = ADVANCED_FACE ( 'NONE', ( #244 ), #30, .T. ) ;
#12 = PRODUCT ( '20165-E0W', '20165-E0W', '', ( #225 ) ) ;
#13 = AXIS2_PLACEMENT_3D ( 'NONE', #306, #74, #320 ) ;
#14 = CARTESIAN_POINT ( 'NONE',  ( 6.055048479497748300E-017, 0.4944322300693971300, -0.02017707689268473700 ) ) ;
#15 = PRODUCT_DEFINITION_SHAPE ( 'NONE', 'NONE',  #54 ) ;
#16 = EDGE_CURVE ( 'NONE', #197, #192, #241, .T. ) ;
#17 = AXIS2_PLACEMENT_3D ( 'NONE', #236, #116, #79 ) ;
#18 = CARTESIAN_POINT ( 'NONE',  ( 0.0000000000000000000, 1.430033605379650700E-017, -0.02017707689268482700 ) ) ;
#19 = CARTESIAN_POINT ( 'NONE',  ( 0.0000000000000000000, 1.327758708875091000E-017, -0.01460930696208206600 ) ) ;
#20 = VERTEX_POINT ( 'NONE', #169 ) ;
#21 = VECTOR ( 'NONE', #311, 39.37007874015748100 ) ;
#22 = EDGE_CURVE ( 'NONE', #192, #312, #175, .T. ) ;
#23 = CIRCLE ( 'NONE', #296, 0.5000000000000000000 ) ;
#24 = PERSON_AND_ORGANIZATION_ROLE ( 'design_supplier' ) ;
#25 = LOCAL_TIME ( 14, 6, 53.00000000000000000, #130 ) ;
#26 = FACE_OUTER_BOUND ( 'NONE', #182, .T. ) ;
#27 = APPROVAL_DATE_TIME ( #210, #3 ) ;
#28 = CARTESIAN_POINT ( 'NONE',  ( 0.0000000000000000000, 0.4944322300693980200, 0.09886773647398006100 ) ) ;
#29 = CARTESIAN_POINT ( 'NONE',  ( 0.0000000000000000000, 1.430033605379650700E-017, -0.02017707689268482700 ) ) ;
#30 = CONICAL_SURFACE ( 'NONE', #63, 0.4944322300693971300, 0.7853981633974590500 ) ;
#31 = ORIENTED_EDGE ( 'NONE', *, *, #237, .F. ) ;
#32 = EDGE_CURVE ( 'NONE', #312, #192, #117, .T. ) ;
#33 = DIRECTION ( 'NONE',  ( -1.224646799147353200E-016, -1.000000000000000000, 0.0000000000000000000 ) ) ;
#34 = CALENDAR_DATE ( 2018, 1, 6 ) ;
#35 = CARTESIAN_POINT ( 'NONE',  ( 0.0000000000000000000, -7.567119171965986200E-018, 0.09886773647397985300 ) ) ;
#36 = ADVANCED_FACE ( 'NONE', ( #258 ), #77, .F. ) ;
#37 = DIRECTION ( 'NONE',  ( -0.0000000000000000000, -1.836909530733565900E-016, 1.000000000000000000 ) ) ;
#38 = EDGE_LOOP ( 'NONE', ( #134, #245, #133 ) ) ;
#39 = DIRECTION ( 'NONE',  ( 0.0000000000000000000, -1.000000000000000000, -1.726631975225924800E-016 ) ) ;
#40 = EDGE_LOOP ( 'NONE', ( #222, #280, #256, #330 ) ) ;
#41 = CARTESIAN_POINT ( 'NONE',  ( 0.0000000000000000000, 0.0000000000000000000, 1.474995732477029300 ) ) ;
#42 = EDGE_CURVE ( 'NONE', #103, #197, #23, .T. ) ;
#43 = DIRECTION ( 'NONE',  ( -0.0000000000000000000, -1.836909530733565900E-016, 1.000000000000000000 ) ) ;
#44 = AXIS2_PLACEMENT_3D ( 'NONE', #35, #55, #39 ) ;
#45 = CARTESIAN_POINT ( 'NONE',  ( 0.0000000000000000000, 0.0000000000000000000, 3.045428803343170900 ) ) ;
#46 = CONICAL_SURFACE ( 'NONE', #86, 0.4944322300693971300, 0.7853981633974590500 ) ;
#47 = APPROVAL_STATUS ( 'not_yet_approved' ) ;
#48 = AXIS2_PLACEMENT_3D ( 'NONE', #190, #299, #102 ) ;
#49 = DIRECTION ( 'NONE',  ( 0.0000000000000000000, -0.7071067811865552300, 0.7071067811865398000 ) ) ;
#50 = CYLINDRICAL_SURFACE ( 'NONE', #212, 0.5000000000000000000 ) ;
#51 = VERTEX_POINT ( 'NONE', #270 ) ;
#52 = AXIS2_PLACEMENT_3D ( 'NONE', #45, #156, #273 ) ;
#53 = DIRECTION ( 'NONE',  ( 0.0000000000000000000, 1.000000000000000000, 1.707404996040164500E-016 ) ) ;
#54 = PRODUCT_DEFINITION ( 'UNKNOWN', '', #10, #166 ) ;
#55 = DIRECTION ( 'NONE',  ( -0.0000000000000000000, -1.836909530733565900E-016, 1.000000000000000000 ) ) ;
#56 = PRODUCT_RELATED_PRODUCT_CATEGORY ( 'detail', '', ( #12 ) ) ;
#57 = DIRECTION ( 'NONE',  ( -0.0000000000000000000, -1.836909530733566100E-016, 1.000000000000000000 ) ) ;
#58 = DIRECTION ( 'NONE',  ( -0.0000000000000000000, -1.836909530733565900E-016, 1.000000000000000000 ) ) ;
#59 = DIRECTION ( 'NONE',  ( 0.0000000000000000000, -1.000000000000000000, -1.812963573987221600E-016 ) ) ;
#60 = AXIS2_PLACEMENT_3D ( 'NONE', #41, #137, #279 ) ;
#61 = DIRECTION ( 'NONE',  ( 1.224646799147353200E-016, 1.000000000000000000, 0.0000000000000000000 ) ) ;
#62 = SPHERICAL_SURFACE ( 'NONE', #277, 1.574803149606299300 ) ;
#63 = AXIS2_PLACEMENT_3D ( 'NONE', #29, #43, #59 ) ;
#64 = FACE_OUTER_BOUND ( 'NONE', #282, .T. ) ;
#65 = APPROVAL_STATUS ( 'not_yet_approved' ) ;
#66 = APPROVAL_PERSON_ORGANIZATION ( #276, #140, #159 ) ;
#67 = CARTESIAN_POINT ( 'NONE',  ( 0.0000000000000000000, 0.0000000000000000000, 0.05767289783135996800 ) ) ;
#68 = ADVANCED_FACE ( 'NONE', ( #308 ), #143, .T. ) ;
#69 = CYLINDRICAL_SURFACE ( 'NONE', #168, 0.5000000000000000000 ) ;
#70 = ADVANCED_FACE ( 'NONE', ( #183 ), #297, .T. ) ;
#71 = CALENDAR_DATE ( 2018, 1, 6 ) ;
#72 = APPROVAL_STATUS ( 'not_yet_approved' ) ;
#73 = CC_DESIGN_APPROVAL ( #140, ( #10 ) ) ;
#74 = DIRECTION ( 'NONE',  ( 1.000000000000000000, 0.0000000000000000000, 0.0000000000000000000 ) ) ;
#75 = CC_DESIGN_PERSON_AND_ORGANIZATION_ASSIGNMENT ( #232, #88, ( #12 ) ) ;
#76 = ADVANCED_FACE ( 'NONE', ( #172 ), #50, .T. ) ;
#77 = SPHERICAL_SURFACE ( 'NONE', #326, 2.987755905511811700 ) ;
#78 = AXIS2_PLACEMENT_3D ( 'NONE', #317, #58, #111 ) ;
#79 = DIRECTION ( 'NONE',  ( 0.0000000000000000000, -1.000000000000000000, -1.835460370743176800E-016 ) ) ;
#80 = ORIENTED_EDGE ( 'NONE', *, *, #105, .T. ) ;
#81 = CIRCLE ( 'NONE', #101, 1.574803149606299300 ) ;
#82 = MANIFOLD_SOLID_BREP ( '20165-001-1-solid1', #205 ) ;
#83 = DIRECTION ( 'NONE',  ( 0.0000000000000000000, 0.7071067811865692200, -0.7071067811865257000 ) ) ;
#84 = ORIENTED_EDGE ( 'NONE', *, *, #149, .T. ) ;
#85 = DIRECTION ( 'NONE',  ( 0.0000000000000000000, -1.000000000000000000, -1.726631975225924800E-016 ) ) ;
#86 = AXIS2_PLACEMENT_3D ( 'NONE', #238, #37, #239 ) ;
#87 = ORGANIZATION ( 'UNSPECIFIED', 'UNSPECIFIED', '' ) ;
#88 = PERSON_AND_ORGANIZATION_ROLE ( 'design_owner' ) ;
#89 = DIRECTION ( 'NONE',  ( 0.0000000000000000000, -1.000000000000000000, -1.812963573987221600E-016 ) ) ;
#90 = LENGTH_MEASURE_WITH_UNIT ( LENGTH_MEASURE( 0.02539999999999999900 ), #165 );
#91 = LOCAL_TIME ( 14, 6, 53.00000000000000000, #163 ) ;
#92 = CIRCLE ( 'NONE', #229, 2.987755905511811700 ) ;
#93 = DIRECTION ( 'NONE',  ( 0.0000000000000000000, -1.000000000000000000, -1.707404996040164500E-016 ) ) ;
#94 = ORIENTED_EDGE ( 'NONE', *, *, #42, .T. ) ;
#95 = CIRCLE ( 'NONE', #13, 2.987755905511811700 ) ;
#96 = PERSON_AND_ORGANIZATION ( #269, #87 ) ;
#97 = ORIENTED_EDGE ( 'NONE', *, *, #32, .T. ) ;
#98 = FACE_OUTER_BOUND ( 'NONE', #231, .T. ) ;
#99 = CIRCLE ( 'NONE', #44, 0.4944322300693972400 ) ;
#100 = CARTESIAN_POINT ( 'NONE',  ( 6.123233995736766000E-017, 0.5000000000000000000, 0.09329996654337753500 ) ) ;
#101 = AXIS2_PLACEMENT_3D ( 'NONE', #186, #298, #61 ) ;
#102 = DIRECTION ( 'NONE',  ( 1.000000000000000000, 0.0000000000000000000, 0.0000000000000000000 ) ) ;
#103 = VERTEX_POINT ( 'NONE', #152 ) ;
#104 = LOCAL_TIME ( 14, 6, 53.00000000000000000, #223 ) ;
#105 = EDGE_CURVE ( 'NONE', #161, #20, #316, .T. ) ;
#106 = DIRECTION ( 'NONE',  ( 0.0000000000000000000, 0.0000000000000000000, 1.000000000000000000 ) ) ;
#107 = APPROVAL_DATE_TIME ( #5, #140 ) ;
#108 = DIRECTION ( 'NONE',  ( 0.0000000000000000000, -1.000000000000000000, -1.734723475976807100E-016 ) ) ;
#109 = EDGE_CURVE ( 'NONE', #235, #162, #213, .T. ) ;
#110 = DIRECTION ( 'NONE',  ( 0.0000000000000000000, -1.000000000000000000, -1.878145495644180800E-016 ) ) ;
#111 = DIRECTION ( 'NONE',  ( 0.0000000000000000000, -1.000000000000000000, -1.707404996040164500E-016 ) ) ;
#112 = DIRECTION ( 'NONE',  ( -1.000000000000000000, 1.224646799147353200E-016, 2.249565377136128000E-032 ) ) ;
#113 = VECTOR ( 'NONE', #248, 39.37007874015748100 ) ;
#114 = ORIENTED_EDGE ( 'NONE', *, *, #251, .T. ) ;
#115 = ADVANCED_FACE ( 'NONE', ( #157 ), #46, .T. ) ;
#116 = DIRECTION ( 'NONE',  ( -0.0000000000000000000, -1.836909530733565900E-016, 1.000000000000000000 ) ) ;
#117 = CIRCLE ( 'NONE', #78, 0.5000000000000000000 ) ;
#118 = ORIENTED_EDGE ( 'NONE', *, *, #310, .F. ) ;
#119 = SECURITY_CLASSIFICATION_LEVEL ( 'unclassified' ) ;
#120 = VECTOR ( 'NONE', #57, 39.37007874015748100 ) ;
#121 = PERSON_AND_ORGANIZATION ( #269, #87 ) ;
#122 = ADVANCED_BREP_SHAPE_REPRESENTATION ( '20165-E0W', ( #82, #48 ), #123 ) ;
#123 =( GEOMETRIC_REPRESENTATION_CONTEXT ( 3 ) GLOBAL_UNCERTAINTY_ASSIGNED_CONTEXT ( ( #307 ) ) GLOBAL_UNIT_ASSIGNED_CONTEXT ( ( #284, #124, #195 ) ) REPRESENTATION_CONTEXT ( 'NONE', 'WORKASPACE' ) );
#124 =( NAMED_UNIT ( * ) PLANE_ANGLE_UNIT ( ) SI_UNIT ( $, .RADIAN. ) );
#125 = DIRECTION ( 'NONE',  ( 0.0000000000000000000, -1.000000000000000000, -1.835460370743176800E-016 ) ) ;
#126 = CALENDAR_DATE ( 2018, 1, 6 ) ;
#127 = ORIENTED_EDGE ( 'NONE', *, *, #240, .T. ) ;
#128 = PERSON_AND_ORGANIZATION_ROLE ( 'creator' ) ;
#129 = CARTESIAN_POINT ( 'NONE',  ( -6.055048479497759400E-017, -0.4944322300693974000, 0.09886773647397999200 ) ) ;
#130 = COORDINATED_UNIVERSAL_TIME_OFFSET ( 5, 0, .BEHIND. ) ;
#131 = AXIS2_PLACEMENT_3D ( 'NONE', #188, #180, #93 ) ;
#132 = CC_DESIGN_SECURITY_CLASSIFICATION ( #303, ( #10 ) ) ;
#133 = ORIENTED_EDGE ( 'NONE', *, *, #194, .F. ) ;
#134 = ORIENTED_EDGE ( 'NONE', *, *, #230, .F. ) ;
#135 = DATE_AND_TIME ( #126, #91 ) ;
#136 = ORIENTED_EDGE ( 'NONE', *, *, #42, .F. ) ;
#137 = DIRECTION ( 'NONE',  ( 1.000000000000000000, 0.0000000000000000000, 0.0000000000000000000 ) ) ;
#138 = DIMENSIONAL_EXPONENTS ( 1.000000000000000000, 0.0000000000000000000, 0.0000000000000000000, 0.0000000000000000000, 0.0000000000000000000, 0.0000000000000000000, 0.0000000000000000000 ) ;
#139 = EDGE_CURVE ( 'NONE', #161, #103, #1, .T. ) ;
#140 = APPROVAL ( #65, 'UNSPECIFIED' ) ;
#141 = AXIS2_PLACEMENT_3D ( 'NONE', #147, #209, #321 ) ;
#142 = CIRCLE ( 'NONE', #246, 0.4944322300693971300 ) ;
#143 = CONICAL_SURFACE ( 'NONE', #6, 0.5000000000000000000, 0.7853981633974789200 ) ;
#144 = LOCAL_TIME ( 14, 6, 53.00000000000000000, #257 ) ;
#145 = EDGE_LOOP ( 'NONE', ( #7, #203, #114 ) ) ;
#146 = DIRECTION ( 'NONE',  ( 8.659560562355026500E-017, 0.7071067811865550100, 0.7071067811865400200 ) ) ;
#147 = CARTESIAN_POINT ( 'NONE',  ( 0.0000000000000000000, -6.544370206920454500E-018, 0.09329996654337745200 ) ) ;
#148 = ORIENTED_EDGE ( 'NONE', *, *, #286, .F. ) ;
#149 = EDGE_CURVE ( 'NONE', #20, #197, #254, .T. ) ;
#150 = EDGE_LOOP ( 'NONE', ( #31, #249, #171, #151 ) ) ;
#151 = ORIENTED_EDGE ( 'NONE', *, *, #22, .T. ) ;
#152 = CARTESIAN_POINT ( 'NONE',  ( 0.0000000000000000000, -0.5000000000000000000, -0.01460930696208215800 ) ) ;
#153 = COORDINATED_UNIVERSAL_TIME_OFFSET ( 5, 0, .BEHIND. ) ;
#154 = APPLICATION_PROTOCOL_DEFINITION ( 'international standard', 'config_control_design', 1994, #201 ) ;
#155 = CC_DESIGN_PERSON_AND_ORGANIZATION_ASSIGNMENT ( #204, #24, ( #10 ) ) ;
#156 = DIRECTION ( 'NONE',  ( -1.000000000000000000, 0.0000000000000000000, 0.0000000000000000000 ) ) ;
#157 = FACE_OUTER_BOUND ( 'NONE', #252, .T. ) ;
#158 = CARTESIAN_POINT ( 'NONE',  ( 6.123233995736766000E-017, 0.5000000000000000000, 0.05767289783136006500 ) ) ;
#159 = APPROVAL_ROLE ( '' ) ;
#160 = VERTEX_POINT ( 'NONE', #233 ) ;
#161 = VERTEX_POINT ( 'NONE', #170 ) ;
#162 = VERTEX_POINT ( 'NONE', #129 ) ;
#163 = COORDINATED_UNIVERSAL_TIME_OFFSET ( 5, 0, .BEHIND. ) ;
#164 = PERSON_AND_ORGANIZATION ( #269, #87 ) ;
#165 =( LENGTH_UNIT ( ) NAMED_UNIT ( * ) SI_UNIT ( $, .METRE. ) );
#166 = DESIGN_CONTEXT ( 'detailed design', #201, 'design' ) ;
#167 = APPROVAL_DATE_TIME ( #135, #243 ) ;
#168 = AXIS2_PLACEMENT_3D ( 'NONE', #67, #300, #281 ) ;
#169 = CARTESIAN_POINT ( 'NONE',  ( 6.055048479497748300E-017, 0.4944322300693972400, -0.02017707689268476900 ) ) ;
#170 = CARTESIAN_POINT ( 'NONE',  ( 0.0000000000000000000, -0.4944322300693969600, -0.02017707689268486200 ) ) ;
#171 = ORIENTED_EDGE ( 'NONE', *, *, #286, .T. ) ;
#172 = FACE_OUTER_BOUND ( 'NONE', #327, .T. ) ;
#173 = CARTESIAN_POINT ( 'NONE',  ( 0.0000000000000000000, -0.4944322300693971300, -0.02017707689268491800 ) ) ;
#174 = CC_DESIGN_PERSON_AND_ORGANIZATION_ASSIGNMENT ( #219, #287, ( #54 ) ) ;
#175 = CIRCLE ( 'NONE', #131, 0.5000000000000000000 ) ;
#176 = ORIENTED_EDGE ( 'NONE', *, *, #22, .F. ) ;
#177 = SPHERICAL_SURFACE ( 'NONE', #60, 1.574803149606299300 ) ;
#178 = APPROVAL_ROLE ( '' ) ;
#179 = EDGE_CURVE ( 'NONE', #197, #103, #216, .T. ) ;
#180 = DIRECTION ( 'NONE',  ( -0.0000000000000000000, -1.836909530733565900E-016, 1.000000000000000000 ) ) ;
#181 = APPLICATION_PROTOCOL_DEFINITION ( 'international standard', 'config_control_design', 1994, #295 ) ;
#182 = EDGE_LOOP ( 'NONE', ( #259, #127, #217 ) ) ;
#183 = FACE_OUTER_BOUND ( 'NONE', #150, .T. ) ;
#184 = DIRECTION ( 'NONE',  ( -1.000000000000000000, 0.0000000000000000000, 0.0000000000000000000 ) ) ;
#185 = CC_DESIGN_DATE_AND_TIME_ASSIGNMENT ( #268, #285, ( #54 ) ) ;
#186 = CARTESIAN_POINT ( 'NONE',  ( 0.0000000000000000000, 0.0000000000000000000, 1.474995732477029300 ) ) ;
#187 = SHAPE_DEFINITION_REPRESENTATION ( #15, #122 ) ;
#188 = CARTESIAN_POINT ( 'NONE',  ( 0.0000000000000000000, -6.544370206920454500E-018, 0.09329996654337745200 ) ) ;
#189 = APPROVAL_PERSON_ORGANIZATION ( #164, #3, #178 ) ;
#190 = CARTESIAN_POINT ( 'NONE',  ( 0.0000000000000000000, 0.0000000000000000000, 0.0000000000000000000 ) ) ;
#191 = ORIENTED_EDGE ( 'NONE', *, *, #237, .T. ) ;
#192 = VERTEX_POINT ( 'NONE', #100 ) ;
#193 = AXIS2_PLACEMENT_3D ( 'NONE', #271, #196, #85 ) ;
#194 = EDGE_CURVE ( 'NONE', #20, #161, #142, .T. ) ;
#195 =( NAMED_UNIT ( * ) SI_UNIT ( $, .STERADIAN. ) SOLID_ANGLE_UNIT ( ) );
#196 = DIRECTION ( 'NONE',  ( -0.0000000000000000000, -1.836909530733565900E-016, 1.000000000000000000 ) ) ;
#197 = VERTEX_POINT ( 'NONE', #290 ) ;
#198 = LINE ( 'NONE', #293, #120 ) ;
#199 = AXIS2_PLACEMENT_3D ( 'NONE', #18, #319, #89 ) ;
#200 = ADVANCED_FACE ( 'NONE', ( #261 ), #177, .T. ) ;
#201 = APPLICATION_CONTEXT ( 'configuration controlled 3d designs of mechanical parts and assemblies' ) ;
#202 = ORIENTED_EDGE ( 'NONE', *, *, #16, .T. ) ;
#203 = ORIENTED_EDGE ( 'NONE', *, *, #4, .T. ) ;
#204 = PERSON_AND_ORGANIZATION ( #269, #87 ) ;
#205 = CLOSED_SHELL ( 'NONE', ( #68, #315, #115, #266, #36, #314, #200, #11, #76, #70 ) ) ;
#206 = EDGE_CURVE ( 'NONE', #103, #312, #198, .T. ) ;
#207 = CARTESIAN_POINT ( 'NONE',  ( 0.0000000000000000000, 1.430033605379650700E-017, -0.02017707689268482700 ) ) ;
#208 = CARTESIAN_POINT ( 'NONE',  ( 0.0000000000000000000, 0.0000000000000000000, 1.474995732477029300 ) ) ;
#209 = DIRECTION ( 'NONE',  ( 0.0000000000000000000, 1.836909530733565900E-016, -1.000000000000000000 ) ) ;
#210 = DATE_AND_TIME ( #71, #144 ) ;
#211 = CARTESIAN_POINT ( 'NONE',  ( 0.0000000000000000000, 0.0000000000000000000, 0.05767289783135996800 ) ) ;
#212 = AXIS2_PLACEMENT_3D ( 'NONE', #211, #224, #110 ) ;
#213 = CIRCLE ( 'NONE', #193, 0.4944322300693972400 ) ;
#214 = DIRECTION ( 'NONE',  ( 0.0000000000000000000, -1.000000000000000000, -1.812963573987221600E-016 ) ) ;
#215 = DIRECTION ( 'NONE',  ( -1.000000000000000000, 0.0000000000000000000, -0.0000000000000000000 ) ) ;
#216 = CIRCLE ( 'NONE', #17, 0.5000000000000000000 ) ;
#217 = ORIENTED_EDGE ( 'NONE', *, *, #109, .T. ) ;
#218 = DATE_AND_TIME ( #221, #25 ) ;
#219 = PERSON_AND_ORGANIZATION ( #269, #87 ) ;
#220 = CC_DESIGN_APPROVAL ( #3, ( #54 ) ) ;
#221 = CALENDAR_DATE ( 2018, 1, 6 ) ;
#222 = ORIENTED_EDGE ( 'NONE', *, *, #149, .F. ) ;
#223 = COORDINATED_UNIVERSAL_TIME_OFFSET ( 5, 0, .BEHIND. ) ;
#224 = DIRECTION ( 'NONE',  ( -0.0000000000000000000, -1.836909530733565900E-016, 1.000000000000000000 ) ) ;
#225 = MECHANICAL_CONTEXT ( 'NONE', #295, 'mechanical' ) ;
#226 = ORIENTED_EDGE ( 'NONE', *, *, #251, .F. ) ;
#227 = ORIENTED_EDGE ( 'NONE', *, *, #179, .T. ) ;
#228 = CARTESIAN_POINT ( 'NONE',  ( 0.0000000000000000000, 0.5000000000000000000, 0.09329996654337753500 ) ) ;
#229 = AXIS2_PLACEMENT_3D ( 'NONE', #272, #112, #33 ) ;
#230 = EDGE_CURVE ( 'NONE', #51, #20, #81, .T. ) ;
#231 = EDGE_LOOP ( 'NONE', ( #94, #202, #328, #275 ) ) ;
#232 = PERSON_AND_ORGANIZATION ( #269, #87 ) ;
#233 = CARTESIAN_POINT ( 'NONE',  ( 0.0000000000000000000, 7.317710151499463600E-016, 0.05767289783135942600 ) ) ;
#234 = SPHERICAL_SURFACE ( 'NONE', #52, 2.987755905511811700 ) ;
#235 = VERTEX_POINT ( 'NONE', #28 ) ;
#236 = CARTESIAN_POINT ( 'NONE',  ( 0.0000000000000000000, 1.327758708875091000E-017, -0.01460930696208206600 ) ) ;
#237 = EDGE_CURVE ( 'NONE', #162, #312, #267, .T. ) ;
#238 = CARTESIAN_POINT ( 'NONE',  ( 0.0000000000000000000, 1.430033605379650700E-017, -0.02017707689268482700 ) ) ;
#239 = DIRECTION ( 'NONE',  ( 0.0000000000000000000, -1.000000000000000000, -1.812963573987221600E-016 ) ) ;
#240 = EDGE_CURVE ( 'NONE', #160, #235, #95, .T. ) ;
#241 = LINE ( 'NONE', #158, #113 ) ;
#242 = VECTOR ( 'NONE', #146, 39.37007874015748100 ) ;
#243 = APPROVAL ( #72, 'UNSPECIFIED' ) ;
#244 = FACE_OUTER_BOUND ( 'NONE', #40, .T. ) ;
#245 = ORIENTED_EDGE ( 'NONE', *, *, #310, .T. ) ;
#246 = AXIS2_PLACEMENT_3D ( 'NONE', #207, #260, #214 ) ;
#247 = CIRCLE ( 'NONE', #292, 1.574803149606299300 ) ;
#248 = DIRECTION ( 'NONE',  ( -0.0000000000000000000, -1.836909530733566100E-016, 1.000000000000000000 ) ) ;
#249 = ORIENTED_EDGE ( 'NONE', *, *, #109, .F. ) ;
#250 = ORIENTED_EDGE ( 'NONE', *, *, #139, .F. ) ;
#251 = EDGE_CURVE ( 'NONE', #162, #235, #99, .T. ) ;
#252 = EDGE_LOOP ( 'NONE', ( #80, #84, #136, #250 ) ) ;
#253 = CARTESIAN_POINT ( 'NONE',  ( 0.0000000000000000000, -0.5000000000000000000, 0.09329996654337736900 ) ) ;
#254 = LINE ( 'NONE', #14, #242 ) ;
#255 = ORIENTED_EDGE ( 'NONE', *, *, #206, .T. ) ;
#256 = ORIENTED_EDGE ( 'NONE', *, *, #139, .T. ) ;
#257 = COORDINATED_UNIVERSAL_TIME_OFFSET ( 5, 0, .BEHIND. ) ;
#258 = FACE_OUTER_BOUND ( 'NONE', #145, .T. ) ;
#259 = ORIENTED_EDGE ( 'NONE', *, *, #4, .F. ) ;
#260 = DIRECTION ( 'NONE',  ( -0.0000000000000000000, -1.836909530733565900E-016, 1.000000000000000000 ) ) ;
#261 = FACE_OUTER_BOUND ( 'NONE', #38, .T. ) ;
#262 = LOCAL_TIME ( 14, 6, 53.00000000000000000, #153 ) ;
#263 = CC_DESIGN_DATE_AND_TIME_ASSIGNMENT ( #218, #329, ( #303 ) ) ;
#264 = CC_DESIGN_APPROVAL ( #243, ( #303 ) ) ;
#265 = CARTESIAN_POINT ( 'NONE',  ( 0.0000000000000000000, 0.0000000000000000000, 3.045428803343170900 ) ) ;
#266 = ADVANCED_FACE ( 'NONE', ( #64 ), #62, .T. ) ;
#267 = LINE ( 'NONE', #325, #21 ) ;
#268 = DATE_AND_TIME ( #318, #262 ) ;
#269 = PERSON ( 'UNSPECIFIED', 'UNSPECIFIED', 'UNSPECIFIED', ('UNSPECIFIED'), ('UNSPECIFIED'), ('UNSPECIFIED') ) ;
#270 = CARTESIAN_POINT ( 'NONE',  ( 0.0000000000000000000, 1.928482096314786200E-016, -0.09980741712927009000 ) ) ;
#271 = CARTESIAN_POINT ( 'NONE',  ( 0.0000000000000000000, -7.567119171965986200E-018, 0.09886773647397985300 ) ) ;
#272 = CARTESIAN_POINT ( 'NONE',  ( 0.0000000000000000000, 0.0000000000000000000, 3.045428803343170900 ) ) ;
#273 = DIRECTION ( 'NONE',  ( 0.0000000000000000000, 1.000000000000000000, 1.828695569557439600E-016 ) ) ;
#274 = ORIENTED_EDGE ( 'NONE', *, *, #230, .T. ) ;
#275 = ORIENTED_EDGE ( 'NONE', *, *, #206, .F. ) ;
#276 = PERSON_AND_ORGANIZATION ( #269, #87 ) ;
#277 = AXIS2_PLACEMENT_3D ( 'NONE', #8, #324, #108 ) ;
#278 = CC_DESIGN_PERSON_AND_ORGANIZATION_ASSIGNMENT ( #96, #323, ( #303 ) ) ;
#279 = DIRECTION ( 'NONE',  ( 0.0000000000000000000, -1.000000000000000000, -1.734723475976807100E-016 ) ) ;
#280 = ORIENTED_EDGE ( 'NONE', *, *, #194, .T. ) ;
#281 = DIRECTION ( 'NONE',  ( 0.0000000000000000000, -1.000000000000000000, -1.878145495644180800E-016 ) ) ;
#282 = EDGE_LOOP ( 'NONE', ( #118, #274, #322 ) ) ;
#283 = EDGE_LOOP ( 'NONE', ( #226, #191, #97, #148 ) ) ;
#284 =( CONVERSION_BASED_UNIT ( 'INCH', #90 ) LENGTH_UNIT ( ) NAMED_UNIT ( #138 ) );
#285 = DATE_TIME_ROLE ( 'creation_date' ) ;
#286 = EDGE_CURVE ( 'NONE', #235, #192, #9, .T. ) ;
#287 = PERSON_AND_ORGANIZATION_ROLE ( 'creator' ) ;
#288 = ORIENTED_EDGE ( 'NONE', *, *, #16, .F. ) ;
#289 = VECTOR ( 'NONE', #83, 39.37007874015748900 ) ;
#290 = CARTESIAN_POINT ( 'NONE',  ( 6.123233995736766000E-017, 0.5000000000000000000, -0.01460930696208197400 ) ) ;
#291 = APPROVAL_ROLE ( '' ) ;
#292 = AXIS2_PLACEMENT_3D ( 'NONE', #208, #215, #106 ) ;
#293 = CARTESIAN_POINT ( 'NONE',  ( 0.0000000000000000000, -0.5000000000000000000, 0.05767289783135987100 ) ) ;
#294 = APPROVAL_PERSON_ORGANIZATION ( #2, #243, #291 ) ;
#295 = APPLICATION_CONTEXT ( 'configuration controlled 3d designs of mechanical parts and assemblies' ) ;
#296 = AXIS2_PLACEMENT_3D ( 'NONE', #19, #304, #125 ) ;
#297 = CONICAL_SURFACE ( 'NONE', #141, 0.5000000000000000000, 0.7853981633974789200 ) ;
#298 = DIRECTION ( 'NONE',  ( 1.000000000000000000, -1.224646799147353200E-016, -2.249565377136128000E-032 ) ) ;
#299 = DIRECTION ( 'NONE',  ( 0.0000000000000000000, 0.0000000000000000000, 1.000000000000000000 ) ) ;
#300 = DIRECTION ( 'NONE',  ( -0.0000000000000000000, -1.836909530733565900E-016, 1.000000000000000000 ) ) ;
#301 = VECTOR ( 'NONE', #49, 39.37007874015748100 ) ;
#302 = DIRECTION ( 'NONE',  ( 0.0000000000000000000, 1.836909530733565900E-016, -1.000000000000000000 ) ) ;
#303 = SECURITY_CLASSIFICATION ( '', '', #119 ) ;
#304 = DIRECTION ( 'NONE',  ( -0.0000000000000000000, -1.836909530733565900E-016, 1.000000000000000000 ) ) ;
#305 = CARTESIAN_POINT ( 'NONE',  ( 0.0000000000000000000, -6.544370206920454500E-018, 0.09329996654337745200 ) ) ;
#306 = CARTESIAN_POINT ( 'NONE',  ( 0.0000000000000000000, 0.0000000000000000000, 3.045428803343170900 ) ) ;
#307 = UNCERTAINTY_MEASURE_WITH_UNIT (LENGTH_MEASURE( 1.000000000000000100E-005 ), #284, 'distance_accuracy_value', 'NONE');
#308 = FACE_OUTER_BOUND ( 'NONE', #283, .T. ) ;
#309 = CC_DESIGN_PERSON_AND_ORGANIZATION_ASSIGNMENT ( #121, #128, ( #10 ) ) ;
#310 = EDGE_CURVE ( 'NONE', #51, #161, #247, .T. ) ;
#311 = DIRECTION ( 'NONE',  ( 8.659560562355199100E-017, -0.7071067811865691100, -0.7071067811865260300 ) ) ;
#312 = VERTEX_POINT ( 'NONE', #253 ) ;
#313 = DIRECTION ( 'NONE',  ( 0.0000000000000000000, 1.000000000000000000, 1.828695569557439600E-016 ) ) ;
#314 = ADVANCED_FACE ( 'NONE', ( #26 ), #234, .F. ) ;
#315 = ADVANCED_FACE ( 'NONE', ( #98 ), #69, .T. ) ;
#316 = CIRCLE ( 'NONE', #199, 0.4944322300693971300 ) ;
#317 = CARTESIAN_POINT ( 'NONE',  ( 0.0000000000000000000, -6.544370206920454500E-018, 0.09329996654337745200 ) ) ;
#318 = CALENDAR_DATE ( 2018, 1, 6 ) ;
#319 = DIRECTION ( 'NONE',  ( -0.0000000000000000000, -1.836909530733565900E-016, 1.000000000000000000 ) ) ;
#320 = DIRECTION ( 'NONE',  ( 0.0000000000000000000, 0.0000000000000000000, -1.000000000000000000 ) ) ;
#321 = DIRECTION ( 'NONE',  ( 0.0000000000000000000, 1.000000000000000000, 1.707404996040164500E-016 ) ) ;
#322 = ORIENTED_EDGE ( 'NONE', *, *, #105, .F. ) ;
#323 = PERSON_AND_ORGANIZATION_ROLE ( 'classification_officer' ) ;
#324 = DIRECTION ( 'NONE',  ( 1.000000000000000000, 0.0000000000000000000, 0.0000000000000000000 ) ) ;
#325 = CARTESIAN_POINT ( 'NONE',  ( 6.123233995736766000E-017, -0.5000000000000000000, 0.09329996654337736900 ) ) ;
#326 = AXIS2_PLACEMENT_3D ( 'NONE', #265, #184, #313 ) ;
#327 = EDGE_LOOP ( 'NONE', ( #288, #227, #255, #176 ) ) ;
#328 = ORIENTED_EDGE ( 'NONE', *, *, #32, .F. ) ;
#329 = DATE_TIME_ROLE ( 'classification_date' ) ;
#330 = ORIENTED_EDGE ( 'NONE', *, *, #179, .F. ) ;
ENDSEC;
END-ISO-10303-21;
