ISO-10303-21;
HEADER;
FILE_DESCRIPTION (( 'STEP AP203' ),
    '1' );
FILE_NAME ('20163-E0W.STEP',
    '2018-06-01T18:06:35',
    ( 'admin' ),
    ( '' ),
    'SwSTEP 2.0',
    'SolidWorks 2016',
    '' );
FILE_SCHEMA (( 'CONFIG_CONTROL_DESIGN' ));
ENDSEC;

DATA;
#1 = SECURITY_CLASSIFICATION ( '', '', #115 ) ;
#2 = ORIENTED_EDGE ( 'NONE', *, *, #145, .F. ) ;
#3 = APPROVAL_PERSON_ORGANIZATION ( #258, #38, #183 ) ;
#4 = DIRECTION ( 'NONE',  ( 0.0000000000000000000, -1.000000000000000000, -1.734723475976806800E-016 ) ) ;
#5 = DIRECTION ( 'NONE',  ( 0.0000000000000000000, -1.000000000000000000, -1.726631975225924800E-016 ) ) ;
#6 = CIRCLE ( 'NONE', #98, 0.7874015748031496500 ) ;
#7 = PERSON_AND_ORGANIZATION ( #230, #329 ) ;
#8 = CARTESIAN_POINT ( 'NONE',  ( 0.0000000000000000000, -1.597275823106182200E-017, 0.1212005263706691200 ) ) ;
#9 = DIRECTION ( 'NONE',  ( -0.0000000000000000000, -1.836909530733565900E-016, 1.000000000000000000 ) ) ;
#10 = AXIS2_PLACEMENT_3D ( 'NONE', #16, #194, #177 ) ;
#11 = DATE_AND_TIME ( #51, #311 ) ;
#12 = DESIGN_CONTEXT ( 'detailed design', #77, 'design' ) ;
#13 = APPROVAL_STATUS ( 'not_yet_approved' ) ;
#14 = ADVANCED_FACE ( 'NONE', ( #80 ), #328, .T. ) ;
#15 = AXIS2_PLACEMENT_3D ( 'NONE', #212, #33, #173 ) ;
#16 = CARTESIAN_POINT ( 'NONE',  ( 0.0000000000000000000, -1.495000926601622800E-017, 0.1156327564400663900 ) ) ;
#17 = DIRECTION ( 'NONE',  ( 1.000000000000000000, 0.0000000000000000000, 0.0000000000000000000 ) ) ;
#18 =( LENGTH_UNIT ( ) NAMED_UNIT ( * ) SI_UNIT ( $, .METRE. ) );
#19 = FACE_OUTER_BOUND ( 'NONE', #107, .T. ) ;
#20 = CC_DESIGN_PERSON_AND_ORGANIZATION_ASSIGNMENT ( #125, #53, ( #1 ) ) ;
#21 = DIRECTION ( 'NONE',  ( -0.0000000000000000000, -1.836909530733565900E-016, 1.000000000000000000 ) ) ;
#22 = DIRECTION ( 'NONE',  ( 0.0000000000000000000, -1.000000000000000000, -1.899295172748516300E-016 ) ) ;
#23 = CARTESIAN_POINT ( 'NONE',  ( 6.123233995736766000E-017, 0.5000000000000000000, 0.1156327564400664700 ) ) ;
#24 = DIRECTION ( 'NONE',  ( 0.0000000000000000000, -1.000000000000000000, -1.878145495644180800E-016 ) ) ;
#25 = AXIS2_PLACEMENT_3D ( 'NONE', #211, #109, #285 ) ;
#26 = FACE_OUTER_BOUND ( 'NONE', #85, .T. ) ;
#27 = AXIS2_PLACEMENT_3D ( 'NONE', #147, #323, #168 ) ;
#28 = COORDINATED_UNIVERSAL_TIME_OFFSET ( 5, 0, .BEHIND. ) ;
#29 = CARTESIAN_POINT ( 'NONE',  ( 6.123233995736766000E-017, -0.5000000000000000000, 0.1156327564400662900 ) ) ;
#30 = ORIENTED_EDGE ( 'NONE', *, *, #127, .F. ) ;
#31 = AXIS2_PLACEMENT_3D ( 'NONE', #274, #21, #24 ) ;
#32 = AXIS2_PLACEMENT_3D ( 'NONE', #185, #138, #221 ) ;
#33 = DIRECTION ( 'NONE',  ( 0.0000000000000000000, 1.836909530733565900E-016, -1.000000000000000000 ) ) ;
#34 = DIRECTION ( 'NONE',  ( 0.0000000000000000000, -1.000000000000000000, -1.726631975225924800E-016 ) ) ;
#35 = CIRCLE ( 'NONE', #154, 0.4944322300693974600 ) ;
#36 = VECTOR ( 'NONE', #213, 39.37007874015748100 ) ;
#37 = CARTESIAN_POINT ( 'NONE',  ( 0.0000000000000000000, -3.142896800878301000E-018, 0.05135570703947459100 ) ) ;
#38 = APPROVAL ( #171, 'UNSPECIFIED' ) ;
#39 = CIRCLE ( 'NONE', #202, 0.5000000000000000000 ) ;
#40 = DIRECTION ( 'NONE',  ( -0.0000000000000000000, -1.836909530733565900E-016, 1.000000000000000000 ) ) ;
#41 = DIRECTION ( 'NONE',  ( 1.000000000000000000, -1.224646799147353200E-016, -2.249565377136128000E-032 ) ) ;
#42 =( CONVERSION_BASED_UNIT ( 'INCH', #172 ) LENGTH_UNIT ( ) NAMED_UNIT ( #251 ) );
#43 = CC_DESIGN_PERSON_AND_ORGANIZATION_ASSIGNMENT ( #242, #63, ( #314 ) ) ;
#44 = DIRECTION ( 'NONE',  ( 8.659560562354627200E-017, 0.7071067811865224800, 0.7071067811865725500 ) ) ;
#45 = ADVANCED_FACE ( 'NONE', ( #155 ), #117, .F. ) ;
#46 = ORIENTED_EDGE ( 'NONE', *, *, #124, .F. ) ;
#47 = DIRECTION ( 'NONE',  ( 0.0000000000000000000, 0.0000000000000000000, 1.000000000000000000 ) ) ;
#48 = DIRECTION ( 'NONE',  ( 1.000000000000000000, 0.0000000000000000000, 0.0000000000000000000 ) ) ;
#49 = DIRECTION ( 'NONE',  ( -0.0000000000000000000, -1.836909530733565900E-016, 1.000000000000000000 ) ) ;
#50 = DIRECTION ( 'NONE',  ( 0.0000000000000000000, 0.0000000000000000000, 1.000000000000000000 ) ) ;
#51 = CALENDAR_DATE ( 2018, 1, 6 ) ;
#52 = CARTESIAN_POINT ( 'NONE',  ( -6.055048479497752000E-017, -0.4944322300693971300, 0.1212005263706690300 ) ) ;
#53 = PERSON_AND_ORGANIZATION_ROLE ( 'classification_officer' ) ;
#54 = CC_DESIGN_DATE_AND_TIME_ASSIGNMENT ( #126, #253, ( #1 ) ) ;
#55 = ORIENTED_EDGE ( 'NONE', *, *, #165, .F. ) ;
#56 = CARTESIAN_POINT ( 'NONE',  ( 0.0000000000000000000, 0.5000000000000000000, 0.1156327564400664700 ) ) ;
#57 = CIRCLE ( 'NONE', #199, 0.4944322300693972400 ) ;
#58 = CIRCLE ( 'NONE', #25, 0.4944322300693974600 ) ;
#59 = AXIS2_PLACEMENT_3D ( 'NONE', #293, #187, #75 ) ;
#60 = DIRECTION ( 'NONE',  ( 1.000000000000000000, 0.0000000000000000000, 0.0000000000000000000 ) ) ;
#61 = CIRCLE ( 'NONE', #32, 1.449173228346456500 ) ;
#62 = CYLINDRICAL_SURFACE ( 'NONE', #163, 0.5000000000000000000 ) ;
#63 = PERSON_AND_ORGANIZATION_ROLE ( 'design_owner' ) ;
#64 = CARTESIAN_POINT ( 'NONE',  ( 0.0000000000000000000, -1.597275823106182200E-017, 0.1212005263706691200 ) ) ;
#65 = ADVANCED_FACE ( 'NONE', ( #269 ), #236, .T. ) ;
#66 = DIRECTION ( 'NONE',  ( 0.0000000000000000000, -0.7071067811865227000, 0.7071067811865723300 ) ) ;
#67 = FACE_OUTER_BOUND ( 'NONE', #265, .T. ) ;
#68 = MANIFOLD_SOLID_BREP ( '20163-001-1-solid1', #271 ) ;
#69 = AXIS2_PLACEMENT_3D ( 'NONE', #270, #41, #254 ) ;
#70 = CARTESIAN_POINT ( 'NONE',  ( 0.0000000000000000000, 0.4944322300693972900, 0.1212005263706691100 ) ) ;
#71 = VERTEX_POINT ( 'NONE', #70 ) ;
#72 = DIRECTION ( 'NONE',  ( -0.0000000000000000000, -1.836909530733565900E-016, 1.000000000000000000 ) ) ;
#73 = ORIENTED_EDGE ( 'NONE', *, *, #87, .T. ) ;
#74 = ORIENTED_EDGE ( 'NONE', *, *, #197, .T. ) ;
#75 = DIRECTION ( 'NONE',  ( -1.224646799147353200E-016, -1.000000000000000000, 0.0000000000000000000 ) ) ;
#76 = APPLICATION_CONTEXT ( 'configuration controlled 3d designs of mechanical parts and assemblies' ) ;
#77 = APPLICATION_CONTEXT ( 'configuration controlled 3d designs of mechanical parts and assemblies' ) ;
#78 = CARTESIAN_POINT ( 'NONE',  ( 6.055048479497753200E-017, 0.4944322300693974600, 0.05135570703947468800 ) ) ;
#79 = AXIS2_PLACEMENT_3D ( 'NONE', #8, #9, #34 ) ;
#80 = FACE_OUTER_BOUND ( 'NONE', #252, .T. ) ;
#81 = VERTEX_POINT ( 'NONE', #100 ) ;
#82 = AXIS2_PLACEMENT_3D ( 'NONE', #312, #17, #4 ) ;
#83 = ORIENTED_EDGE ( 'NONE', *, *, #131, .T. ) ;
#84 = EDGE_CURVE ( 'NONE', #272, #71, #232, .T. ) ;
#85 = EDGE_LOOP ( 'NONE', ( #297, #263, #240, #122 ) ) ;
#86 = CALENDAR_DATE ( 2018, 1, 6 ) ;
#87 = EDGE_CURVE ( 'NONE', #175, #81, #233, .T. ) ;
#88 = ORIENTED_EDGE ( 'NONE', *, *, #131, .F. ) ;
#89 = LINE ( 'NONE', #255, #36 ) ;
#90 = AXIS2_PLACEMENT_3D ( 'NONE', #139, #280, #106 ) ;
#91 = DIRECTION ( 'NONE',  ( 0.0000000000000000000, 0.7071067811865475700, -0.7071067811865474600 ) ) ;
#92 = SPHERICAL_SURFACE ( 'NONE', #90, 1.449173228346456500 ) ;
#93 = FACE_OUTER_BOUND ( 'NONE', #295, .T. ) ;
#94 = SHAPE_DEFINITION_REPRESENTATION ( #205, #129 ) ;
#95 = PRODUCT_DEFINITION ( 'UNKNOWN', '', #189, #12 ) ;
#96 = CARTESIAN_POINT ( 'NONE',  ( 6.055048479497752000E-017, 0.4944322300693975200, 0.05135570703947472900 ) ) ;
#97 = DIRECTION ( 'NONE',  ( -1.000000000000000000, 0.0000000000000000000, 0.0000000000000000000 ) ) ;
#98 = AXIS2_PLACEMENT_3D ( 'NONE', #306, #209, #50 ) ;
#99 = DIRECTION ( 'NONE',  ( 0.0000000000000000000, -1.000000000000000000, -1.899295172748516300E-016 ) ) ;
#100 = CARTESIAN_POINT ( 'NONE',  ( 0.0000000000000000000, -0.5000000000000000000, 0.1156327564400662900 ) ) ;
#101 = COORDINATED_UNIVERSAL_TIME_OFFSET ( 5, 0, .BEHIND. ) ;
#102 = CARTESIAN_POINT ( 'NONE',  ( 0.0000000000000000000, -3.142896800878301000E-018, 0.05135570703947459100 ) ) ;
#103 = ORIENTED_EDGE ( 'NONE', *, *, #123, .T. ) ;
#104 = EDGE_CURVE ( 'NONE', #241, #218, #149, .T. ) ;
#105 = APPROVAL ( #112, 'UNSPECIFIED' ) ;
#106 = DIRECTION ( 'NONE',  ( 0.0000000000000000000, 1.000000000000000000, 1.885107963787994700E-016 ) ) ;
#107 = EDGE_LOOP ( 'NONE', ( #46, #330, #136 ) ) ;
#108 = APPLICATION_PROTOCOL_DEFINITION ( 'international standard', 'config_control_design', 1994, #77 ) ;
#109 = DIRECTION ( 'NONE',  ( -0.0000000000000000000, -1.836909530733565900E-016, 1.000000000000000000 ) ) ;
#110 = CARTESIAN_POINT ( 'NONE',  ( 0.0000000000000000000, 3.549362792585798400E-016, 0.03424600866677811300 ) ) ;
#111 = VECTOR ( 'NONE', #301, 39.37007874015748100 ) ;
#112 = APPROVAL_STATUS ( 'not_yet_approved' ) ;
#113 = VECTOR ( 'NONE', #44, 39.37007874015748100 ) ;
#114 = CARTESIAN_POINT ( 'NONE',  ( 0.0000000000000000000, -0.4944322300693974600, 0.05135570703947450000 ) ) ;
#115 = SECURITY_CLASSIFICATION_LEVEL ( 'unclassified' ) ;
#116 = EDGE_CURVE ( 'NONE', #272, #81, #186, .T. ) ;
#117 = SPHERICAL_SURFACE ( 'NONE', #151, 1.449173228346456500 ) ;
#118 = CALENDAR_DATE ( 2018, 1, 6 ) ;
#119 = EDGE_CURVE ( 'NONE', #303, #272, #288, .T. ) ;
#120 = LINE ( 'NONE', #56, #160 ) ;
#121 = EDGE_CURVE ( 'NONE', #241, #223, #6, .T. ) ;
#122 = ORIENTED_EDGE ( 'NONE', *, *, #87, .F. ) ;
#123 = EDGE_CURVE ( 'NONE', #223, #218, #35, .T. ) ;
#124 = EDGE_CURVE ( 'NONE', #303, #71, #61, .T. ) ;
#125 = PERSON_AND_ORGANIZATION ( #230, #329 ) ;
#126 = DATE_AND_TIME ( #180, #142 ) ;
#127 = EDGE_CURVE ( 'NONE', #175, #206, #170, .T. ) ;
#128 = MECHANICAL_CONTEXT ( 'NONE', #76, 'mechanical' ) ;
#129 = ADVANCED_BREP_SHAPE_REPRESENTATION ( '20163-E0W', ( #68, #273 ), #215 ) ;
#130 = LINE ( 'NONE', #78, #113 ) ;
#131 = EDGE_CURVE ( 'NONE', #218, #223, #58, .T. ) ;
#132 = ORIENTED_EDGE ( 'NONE', *, *, #294, .T. ) ;
#133 = DIRECTION ( 'NONE',  ( -0.0000000000000000000, -1.836909530733566100E-016, 1.000000000000000000 ) ) ;
#134 = CC_DESIGN_APPROVAL ( #38, ( #1 ) ) ;
#135 = DIRECTION ( 'NONE',  ( -0.0000000000000000000, -1.836909530733565900E-016, 1.000000000000000000 ) ) ;
#136 = ORIENTED_EDGE ( 'NONE', *, *, #84, .T. ) ;
#137 = CARTESIAN_POINT ( 'NONE',  ( 0.0000000000000000000, -0.5000000000000000000, 0.03424600866677787000 ) ) ;
#138 = DIRECTION ( 'NONE',  ( 1.000000000000000000, 0.0000000000000000000, 0.0000000000000000000 ) ) ;
#139 = CARTESIAN_POINT ( 'NONE',  ( 0.0000000000000000000, 0.0000000000000000000, 1.483419237013234600 ) ) ;
#140 = CARTESIAN_POINT ( 'NONE',  ( 0.0000000000000000000, 0.0000000000000000000, 0.6641672685092977500 ) ) ;
#141 = EDGE_CURVE ( 'NONE', #81, #283, #239, .T. ) ;
#142 = LOCAL_TIME ( 14, 6, 35.00000000000000000, #326 ) ;
#143 = EDGE_CURVE ( 'NONE', #283, #81, #228, .T. ) ;
#144 = AXIS2_PLACEMENT_3D ( 'NONE', #234, #266, #244 ) ;
#145 = EDGE_CURVE ( 'NONE', #71, #283, #120, .T. ) ;
#146 = CARTESIAN_POINT ( 'NONE',  ( 0.0000000000000000000, 0.0000000000000000000, 1.483419237013234600 ) ) ;
#147 = CARTESIAN_POINT ( 'NONE',  ( 0.0000000000000000000, -4.165645765923933100E-018, 0.05692347697007752600 ) ) ;
#148 = ORIENTED_EDGE ( 'NONE', *, *, #294, .F. ) ;
#149 = CIRCLE ( 'NONE', #69, 0.7874015748031497600 ) ;
#150 = CARTESIAN_POINT ( 'NONE',  ( 0.0000000000000000000, -3.142896800878301000E-018, 0.05135570703947459100 ) ) ;
#151 = AXIS2_PLACEMENT_3D ( 'NONE', #146, #97, #190 ) ;
#152 = CARTESIAN_POINT ( 'NONE',  ( 0.0000000000000000000, 0.0000000000000000000, 0.03424600866677796100 ) ) ;
#153 = APPROVAL_ROLE ( '' ) ;
#154 = AXIS2_PLACEMENT_3D ( 'NONE', #37, #49, #22 ) ;
#155 = FACE_OUTER_BOUND ( 'NONE', #243, .T. ) ;
#156 = CARTESIAN_POINT ( 'NONE',  ( 0.0000000000000000000, 0.0000000000000000000, 0.0000000000000000000 ) ) ;
#157 = EDGE_CURVE ( 'NONE', #71, #272, #57, .T. ) ;
#158 = CC_DESIGN_APPROVAL ( #105, ( #95 ) ) ;
#159 = PERSON_AND_ORGANIZATION_ROLE ( 'design_supplier' ) ;
#160 = VECTOR ( 'NONE', #91, 39.37007874015748100 ) ;
#161 = ORIENTED_EDGE ( 'NONE', *, *, #124, .T. ) ;
#162 = AXIS2_PLACEMENT_3D ( 'NONE', #150, #135, #238 ) ;
#163 = AXIS2_PLACEMENT_3D ( 'NONE', #152, #72, #181 ) ;
#164 = DATE_TIME_ROLE ( 'creation_date' ) ;
#165 = EDGE_CURVE ( 'NONE', #206, #283, #89, .T. ) ;
#166 = ORIENTED_EDGE ( 'NONE', *, *, #119, .F. ) ;
#167 = EDGE_CURVE ( 'NONE', #218, #206, #130, .T. ) ;
#168 = DIRECTION ( 'NONE',  ( 0.0000000000000000000, -1.000000000000000000, -1.878145495644180800E-016 ) ) ;
#169 = SPHERICAL_SURFACE ( 'NONE', #193, 0.7874015748031497600 ) ;
#170 = CIRCLE ( 'NONE', #27, 0.5000000000000000000 ) ;
#171 = APPROVAL_STATUS ( 'not_yet_approved' ) ;
#172 = LENGTH_MEASURE_WITH_UNIT ( LENGTH_MEASURE( 0.02539999999999999900 ), #18 );
#173 = DIRECTION ( 'NONE',  ( 0.0000000000000000000, 1.000000000000000000, 1.707404996040164500E-016 ) ) ;
#174 = CC_DESIGN_DATE_AND_TIME_ASSIGNMENT ( #210, #164, ( #95 ) ) ;
#175 = VERTEX_POINT ( 'NONE', #310 ) ;
#176 = FACE_OUTER_BOUND ( 'NONE', #299, .T. ) ;
#177 = DIRECTION ( 'NONE',  ( 0.0000000000000000000, -1.000000000000000000, -1.707404996040164500E-016 ) ) ;
#178 = LOCAL_TIME ( 14, 6, 35.00000000000000000, #216 ) ;
#179 = ADVANCED_FACE ( 'NONE', ( #93 ), #169, .T. ) ;
#180 = CALENDAR_DATE ( 2018, 1, 6 ) ;
#181 = DIRECTION ( 'NONE',  ( 0.0000000000000000000, -1.000000000000000000, -1.878145495644180800E-016 ) ) ;
#182 = ORIENTED_EDGE ( 'NONE', *, *, #116, .T. ) ;
#183 = APPROVAL_ROLE ( '' ) ;
#184 = LOCAL_TIME ( 14, 6, 35.00000000000000000, #28 ) ;
#185 = CARTESIAN_POINT ( 'NONE',  ( 0.0000000000000000000, 0.0000000000000000000, 1.483419237013234600 ) ) ;
#186 = LINE ( 'NONE', #29, #111 ) ;
#187 = DIRECTION ( 'NONE',  ( -1.000000000000000000, 1.224646799147353200E-016, 2.249565377136128000E-032 ) ) ;
#188 = ORIENTED_EDGE ( 'NONE', *, *, #157, .T. ) ;
#189 = PRODUCT_DEFINITION_FORMATION_WITH_SPECIFIED_SOURCE ( 'ANY', '', #314, .NOT_KNOWN. ) ;
#190 = DIRECTION ( 'NONE',  ( 0.0000000000000000000, 1.000000000000000000, 1.885107963787994700E-016 ) ) ;
#191 = APPROVAL_DATE_TIME ( #11, #38 ) ;
#192 = FACE_OUTER_BOUND ( 'NONE', #260, .T. ) ;
#193 = AXIS2_PLACEMENT_3D ( 'NONE', #140, #48, #327 ) ;
#194 = DIRECTION ( 'NONE',  ( -0.0000000000000000000, -1.836909530733565900E-016, 1.000000000000000000 ) ) ;
#195 = AXIS2_PLACEMENT_3D ( 'NONE', #296, #227, #198 ) ;
#196 = DIRECTION ( 'NONE',  ( -0.0000000000000000000, -1.836909530733565900E-016, 1.000000000000000000 ) ) ;
#197 = EDGE_CURVE ( 'NONE', #206, #175, #39, .T. ) ;
#198 = DIRECTION ( 'NONE',  ( 0.0000000000000000000, 1.000000000000000000, 1.707404996040164500E-016 ) ) ;
#199 = AXIS2_PLACEMENT_3D ( 'NONE', #64, #282, #5 ) ;
#200 = CYLINDRICAL_SURFACE ( 'NONE', #31, 0.5000000000000000000 ) ;
#201 = DIRECTION ( 'NONE',  ( 0.0000000000000000000, -1.000000000000000000, -1.878145495644180800E-016 ) ) ;
#202 = AXIS2_PLACEMENT_3D ( 'NONE', #276, #40, #201 ) ;
#203 = ORIENTED_EDGE ( 'NONE', *, *, #197, .F. ) ;
#204 = APPROVAL ( #13, 'UNSPECIFIED' ) ;
#205 = PRODUCT_DEFINITION_SHAPE ( 'NONE', 'NONE',  #95 ) ;
#206 = VERTEX_POINT ( 'NONE', #286 ) ;
#207 = ADVANCED_FACE ( 'NONE', ( #19 ), #92, .F. ) ;
#208 = APPROVAL_DATE_TIME ( #309, #204 ) ;
#209 = DIRECTION ( 'NONE',  ( -1.000000000000000000, 0.0000000000000000000, -0.0000000000000000000 ) ) ;
#210 = DATE_AND_TIME ( #86, #184 ) ;
#211 = CARTESIAN_POINT ( 'NONE',  ( 0.0000000000000000000, -3.142896800878301000E-018, 0.05135570703947459100 ) ) ;
#212 = CARTESIAN_POINT ( 'NONE',  ( 0.0000000000000000000, -1.495000926601622800E-017, 0.1156327564400663900 ) ) ;
#213 = DIRECTION ( 'NONE',  ( -0.0000000000000000000, -1.836909530733566100E-016, 1.000000000000000000 ) ) ;
#214 = ORIENTED_EDGE ( 'NONE', *, *, #167, .T. ) ;
#215 =( GEOMETRIC_REPRESENTATION_CONTEXT ( 3 ) GLOBAL_UNCERTAINTY_ASSIGNED_CONTEXT ( ( #317 ) ) GLOBAL_UNIT_ASSIGNED_CONTEXT ( ( #42, #287, #305 ) ) REPRESENTATION_CONTEXT ( 'NONE', 'WORKASPACE' ) );
#216 = COORDINATED_UNIVERSAL_TIME_OFFSET ( 5, 0, .BEHIND. ) ;
#217 = PERSON_AND_ORGANIZATION_ROLE ( 'creator' ) ;
#218 = VERTEX_POINT ( 'NONE', #96 ) ;
#219 = ORIENTED_EDGE ( 'NONE', *, *, #116, .F. ) ;
#220 = CONICAL_SURFACE ( 'NONE', #235, 0.4944322300693974600, 0.7853981633974130800 ) ;
#221 = DIRECTION ( 'NONE',  ( 0.0000000000000000000, 0.0000000000000000000, -1.000000000000000000 ) ) ;
#222 = CC_DESIGN_APPROVAL ( #204, ( #189 ) ) ;
#223 = VERTEX_POINT ( 'NONE', #226 ) ;
#224 = CONICAL_SURFACE ( 'NONE', #15, 0.5000000000000000000, 0.7853981633974482800 ) ;
#225 = APPROVAL_PERSON_ORGANIZATION ( #304, #204, #153 ) ;
#226 = CARTESIAN_POINT ( 'NONE',  ( 0.0000000000000000000, -0.4944322300693974000, 0.05135570703947452100 ) ) ;
#227 = DIRECTION ( 'NONE',  ( 0.0000000000000000000, 1.836909530733565900E-016, -1.000000000000000000 ) ) ;
#228 = CIRCLE ( 'NONE', #144, 0.5000000000000000000 ) ;
#229 = EDGE_LOOP ( 'NONE', ( #264, #237, #246 ) ) ;
#230 = PERSON ( 'UNSPECIFIED', 'UNSPECIFIED', 'UNSPECIFIED', ('UNSPECIFIED'), ('UNSPECIFIED'), ('UNSPECIFIED') ) ;
#231 = ADVANCED_FACE ( 'NONE', ( #26 ), #200, .T. ) ;
#232 = CIRCLE ( 'NONE', #79, 0.4944322300693972400 ) ;
#233 = LINE ( 'NONE', #137, #249 ) ;
#234 = CARTESIAN_POINT ( 'NONE',  ( 0.0000000000000000000, -1.495000926601622800E-017, 0.1156327564400663900 ) ) ;
#235 = AXIS2_PLACEMENT_3D ( 'NONE', #102, #196, #99 ) ;
#236 = SPHERICAL_SURFACE ( 'NONE', #82, 0.7874015748031497600 ) ;
#237 = ORIENTED_EDGE ( 'NONE', *, *, #104, .T. ) ;
#238 = DIRECTION ( 'NONE',  ( 0.0000000000000000000, -1.000000000000000000, -1.899295172748516300E-016 ) ) ;
#239 = CIRCLE ( 'NONE', #10, 0.5000000000000000000 ) ;
#240 = ORIENTED_EDGE ( 'NONE', *, *, #141, .F. ) ;
#241 = VERTEX_POINT ( 'NONE', #321 ) ;
#242 = PERSON_AND_ORGANIZATION ( #230, #329 ) ;
#243 = EDGE_LOOP ( 'NONE', ( #166, #161, #188 ) ) ;
#244 = DIRECTION ( 'NONE',  ( 0.0000000000000000000, -1.000000000000000000, -1.707404996040164500E-016 ) ) ;
#245 = LINE ( 'NONE', #114, #277 ) ;
#246 = ORIENTED_EDGE ( 'NONE', *, *, #123, .F. ) ;
#247 = ORIENTED_EDGE ( 'NONE', *, *, #145, .T. ) ;
#248 = ORIENTED_EDGE ( 'NONE', *, *, #157, .F. ) ;
#249 = VECTOR ( 'NONE', #133, 39.37007874015748100 ) ;
#250 = ORIENTED_EDGE ( 'NONE', *, *, #143, .T. ) ;
#251 = DIMENSIONAL_EXPONENTS ( 1.000000000000000000, 0.0000000000000000000, 0.0000000000000000000, 0.0000000000000000000, 0.0000000000000000000, 0.0000000000000000000, 0.0000000000000000000 ) ;
#252 = EDGE_LOOP ( 'NONE', ( #103, #214, #30, #148 ) ) ;
#253 = DATE_TIME_ROLE ( 'classification_date' ) ;
#254 = DIRECTION ( 'NONE',  ( 1.224646799147353200E-016, 1.000000000000000000, 0.0000000000000000000 ) ) ;
#255 = CARTESIAN_POINT ( 'NONE',  ( 6.123233995736766000E-017, 0.5000000000000000000, 0.03424600866677805800 ) ) ;
#256 = ORIENTED_EDGE ( 'NONE', *, *, #121, .T. ) ;
#257 = ORIENTED_EDGE ( 'NONE', *, *, #141, .T. ) ;
#258 = PERSON_AND_ORGANIZATION ( #230, #329 ) ;
#259 = CONICAL_SURFACE ( 'NONE', #195, 0.5000000000000000000, 0.7853981633974482800 ) ;
#260 = EDGE_LOOP ( 'NONE', ( #315, #83, #132, #203 ) ) ;
#261 = CC_DESIGN_SECURITY_CLASSIFICATION ( #1, ( #189 ) ) ;
#262 = PERSON_AND_ORGANIZATION ( #230, #329 ) ;
#263 = ORIENTED_EDGE ( 'NONE', *, *, #165, .T. ) ;
#264 = ORIENTED_EDGE ( 'NONE', *, *, #121, .F. ) ;
#265 = EDGE_LOOP ( 'NONE', ( #219, #248, #247, #250 ) ) ;
#266 = DIRECTION ( 'NONE',  ( -0.0000000000000000000, -1.836909530733565900E-016, 1.000000000000000000 ) ) ;
#267 = CC_DESIGN_PERSON_AND_ORGANIZATION_ASSIGNMENT ( #7, #217, ( #189 ) ) ;
#268 = ORIENTED_EDGE ( 'NONE', *, *, #84, .F. ) ;
#269 = FACE_OUTER_BOUND ( 'NONE', #229, .T. ) ;
#270 = CARTESIAN_POINT ( 'NONE',  ( 0.0000000000000000000, 0.0000000000000000000, 0.6641672685092977500 ) ) ;
#271 = CLOSED_SHELL ( 'NONE', ( #320, #231, #14, #65, #207, #45, #179, #302, #275, #322 ) ) ;
#272 = VERTEX_POINT ( 'NONE', #52 ) ;
#273 = AXIS2_PLACEMENT_3D ( 'NONE', #156, #47, #60 ) ;
#274 = CARTESIAN_POINT ( 'NONE',  ( 0.0000000000000000000, 0.0000000000000000000, 0.03424600866677796100 ) ) ;
#275 = ADVANCED_FACE ( 'NONE', ( #176 ), #62, .T. ) ;
#276 = CARTESIAN_POINT ( 'NONE',  ( 0.0000000000000000000, -4.165645765923933100E-018, 0.05692347697007752600 ) ) ;
#277 = VECTOR ( 'NONE', #66, 39.37007874015748100 ) ;
#278 = PERSON_AND_ORGANIZATION ( #230, #329 ) ;
#279 = PRODUCT_RELATED_PRODUCT_CATEGORY ( 'detail', '', ( #314 ) ) ;
#280 = DIRECTION ( 'NONE',  ( -1.000000000000000000, 0.0000000000000000000, 0.0000000000000000000 ) ) ;
#281 = CC_DESIGN_PERSON_AND_ORGANIZATION_ASSIGNMENT ( #278, #307, ( #95 ) ) ;
#282 = DIRECTION ( 'NONE',  ( -0.0000000000000000000, -1.836909530733565900E-016, 1.000000000000000000 ) ) ;
#283 = VERTEX_POINT ( 'NONE', #23 ) ;
#284 = PERSON_AND_ORGANIZATION ( #230, #329 ) ;
#285 = DIRECTION ( 'NONE',  ( 0.0000000000000000000, -1.000000000000000000, -1.899295172748516300E-016 ) ) ;
#286 = CARTESIAN_POINT ( 'NONE',  ( 6.123233995736766000E-017, 0.5000000000000000000, 0.05692347697007761600 ) ) ;
#287 =( NAMED_UNIT ( * ) PLANE_ANGLE_UNIT ( ) SI_UNIT ( $, .RADIAN. ) );
#288 = CIRCLE ( 'NONE', #59, 1.449173228346456500 ) ;
#289 = CC_DESIGN_PERSON_AND_ORGANIZATION_ASSIGNMENT ( #262, #159, ( #189 ) ) ;
#290 = CALENDAR_DATE ( 2018, 1, 6 ) ;
#291 = APPROVAL_DATE_TIME ( #292, #105 ) ;
#292 = DATE_AND_TIME ( #118, #324 ) ;
#293 = CARTESIAN_POINT ( 'NONE',  ( 0.0000000000000000000, 0.0000000000000000000, 1.483419237013234600 ) ) ;
#294 = EDGE_CURVE ( 'NONE', #223, #175, #245, .T. ) ;
#295 = EDGE_LOOP ( 'NONE', ( #313, #256, #88 ) ) ;
#296 = CARTESIAN_POINT ( 'NONE',  ( 0.0000000000000000000, -1.495000926601622800E-017, 0.1156327564400663900 ) ) ;
#297 = ORIENTED_EDGE ( 'NONE', *, *, #127, .T. ) ;
#298 = FACE_OUTER_BOUND ( 'NONE', #308, .T. ) ;
#299 = EDGE_LOOP ( 'NONE', ( #55, #74, #73, #300 ) ) ;
#300 = ORIENTED_EDGE ( 'NONE', *, *, #143, .F. ) ;
#301 = DIRECTION ( 'NONE',  ( 8.659560562354931600E-017, -0.7071067811865473500, -0.7071067811865476800 ) ) ;
#302 = ADVANCED_FACE ( 'NONE', ( #192 ), #220, .T. ) ;
#303 = VERTEX_POINT ( 'NONE', #110 ) ;
#304 = PERSON_AND_ORGANIZATION ( #230, #329 ) ;
#305 =( NAMED_UNIT ( * ) SI_UNIT ( $, .STERADIAN. ) SOLID_ANGLE_UNIT ( ) );
#306 = CARTESIAN_POINT ( 'NONE',  ( 0.0000000000000000000, 0.0000000000000000000, 0.6641672685092977500 ) ) ;
#307 = PERSON_AND_ORGANIZATION_ROLE ( 'creator' ) ;
#308 = EDGE_LOOP ( 'NONE', ( #268, #182, #257, #2 ) ) ;
#309 = DATE_AND_TIME ( #290, #178 ) ;
#310 = CARTESIAN_POINT ( 'NONE',  ( 0.0000000000000000000, -0.5000000000000000000, 0.05692347697007742900 ) ) ;
#311 = LOCAL_TIME ( 14, 6, 35.00000000000000000, #325 ) ;
#312 = CARTESIAN_POINT ( 'NONE',  ( 0.0000000000000000000, 0.0000000000000000000, 0.6641672685092977500 ) ) ;
#313 = ORIENTED_EDGE ( 'NONE', *, *, #104, .F. ) ;
#314 = PRODUCT ( '20163-E0W', '20163-E0W', '', ( #128 ) ) ;
#315 = ORIENTED_EDGE ( 'NONE', *, *, #167, .F. ) ;
#316 = APPROVAL_ROLE ( '' ) ;
#317 = UNCERTAINTY_MEASURE_WITH_UNIT (LENGTH_MEASURE( 1.000000000000000100E-005 ), #42, 'distance_accuracy_value', 'NONE');
#318 = APPROVAL_PERSON_ORGANIZATION ( #284, #105, #316 ) ;
#319 = APPLICATION_PROTOCOL_DEFINITION ( 'international standard', 'config_control_design', 1994, #76 ) ;
#320 = ADVANCED_FACE ( 'NONE', ( #298 ), #224, .T. ) ;
#321 = CARTESIAN_POINT ( 'NONE',  ( 0.0000000000000000000, 9.642410481573932200E-017, -0.1232343062938520800 ) ) ;
#322 = ADVANCED_FACE ( 'NONE', ( #67 ), #259, .T. ) ;
#323 = DIRECTION ( 'NONE',  ( -0.0000000000000000000, -1.836909530733565900E-016, 1.000000000000000000 ) ) ;
#324 = LOCAL_TIME ( 14, 6, 35.00000000000000000, #101 ) ;
#325 = COORDINATED_UNIVERSAL_TIME_OFFSET ( 5, 0, .BEHIND. ) ;
#326 = COORDINATED_UNIVERSAL_TIME_OFFSET ( 5, 0, .BEHIND. ) ;
#327 = DIRECTION ( 'NONE',  ( 0.0000000000000000000, -1.000000000000000000, -1.734723475976806800E-016 ) ) ;
#328 = CONICAL_SURFACE ( 'NONE', #162, 0.4944322300693974600, 0.7853981633974130800 ) ;
#329 = ORGANIZATION ( 'UNSPECIFIED', 'UNSPECIFIED', '' ) ;
#330 = ORIENTED_EDGE ( 'NONE', *, *, #119, .T. ) ;
ENDSEC;
END-ISO-10303-21;
