ISO-10303-21;
HEADER;
FILE_DESCRIPTION (( 'STEP AP203' ),
    '1' );
FILE_NAME ('Web Model 43888_83369.step',
    '2019-01-28T19:01:04',
    ( '' ),
    ( '' ),
    'SwSTEP 2.0',
    'SolidWorks 2016',
    '' );
FILE_SCHEMA (( 'CONFIG_CONTROL_DESIGN' ));
ENDSEC;

DATA;
#1 = APPROVAL ( #121, 'UNSPECIFIED' ) ;
#2 = ADVANCED_FACE ( 'NONE', ( #159 ), #69, .T. ) ;
#3 = ORIENTED_EDGE ( 'NONE', *, *, #161, .T. ) ;
#4 = PRODUCT ( 'Web Model 43888_83369', 'Web Model 43888_83369', '', ( #155 ) ) ;
#5 = VERTEX_POINT ( 'NONE', #12 ) ;
#6 = SECURITY_CLASSIFICATION ( '', '', #114 ) ;
#7 = EDGE_CURVE ( 'NONE', #23, #33, #149, .T. ) ;
#8 = CC_DESIGN_PERSON_AND_ORGANIZATION_ASSIGNMENT ( #169, #113, ( #6 ) ) ;
#9 = DATE_AND_TIME ( #59, #86 ) ;
#10 = PERSON_AND_ORGANIZATION ( #20, #165 ) ;
#11 = CARTESIAN_POINT ( 'NONE',  ( 0.0000000000000000000, 0.0000000000000000000, 0.0000000000000000000 ) ) ;
#12 = CARTESIAN_POINT ( 'NONE',  ( 2.499999999999999600, 3.061616997868382600E-016, 0.0000000000000000000 ) ) ;
#13 = EDGE_CURVE ( 'NONE', #33, #23, #92, .T. ) ;
#14 = DIRECTION ( 'NONE',  ( 1.000000000000000000, 0.0000000000000000000, -0.0000000000000000000 ) ) ;
#15 = ORIENTED_EDGE ( 'NONE', *, *, #21, .T. ) ;
#16 = APPROVAL_STATUS ( 'not_yet_approved' ) ;
#17 = DIRECTION ( 'NONE',  ( -1.000000000000000000, 0.0000000000000000000, 0.0000000000000000000 ) ) ;
#18 = DATE_AND_TIME ( #58, #91 ) ;
#19 = EDGE_LOOP ( 'NONE', ( #43, #68 ) ) ;
#20 = PERSON ( 'UNSPECIFIED', 'UNSPECIFIED', 'UNSPECIFIED', ('UNSPECIFIED'), ('UNSPECIFIED'), ('UNSPECIFIED') ) ;
#21 = EDGE_CURVE ( 'NONE', #137, #5, #75, .T. ) ;
#22 = CC_DESIGN_PERSON_AND_ORGANIZATION_ASSIGNMENT ( #77, #61, ( #163 ) ) ;
#23 = VERTEX_POINT ( 'NONE', #138 ) ;
#24 = ORIENTED_EDGE ( 'NONE', *, *, #150, .T. ) ;
#25 = MANIFOLD_SOLID_BREP ( 'Boss-Extrude1', #66 ) ;
#26 = CARTESIAN_POINT ( 'NONE',  ( 0.0000000000000000000, 0.0000000000000000000, 1.750000000000000000 ) ) ;
#27 =( NAMED_UNIT ( * ) PLANE_ANGLE_UNIT ( ) SI_UNIT ( $, .RADIAN. ) );
#28 = VECTOR ( 'NONE', #174, 1000.000000000000000 ) ;
#29 = DIRECTION ( 'NONE',  ( -1.000000000000000000, 0.0000000000000000000, 0.0000000000000000000 ) ) ;
#30 = CARTESIAN_POINT ( 'NONE',  ( 2.499999999999999600, 3.061616997868382600E-016, 1.750000000000000000 ) ) ;
#31 = CARTESIAN_POINT ( 'NONE',  ( -2.499999999999999600, 0.0000000000000000000, 1.750000000000000000 ) ) ;
#32 = DATE_AND_TIME ( #45, #46 ) ;
#33 = VERTEX_POINT ( 'NONE', #106 ) ;
#34 = FACE_OUTER_BOUND ( 'NONE', #136, .T. ) ;
#35 = PRODUCT_DEFINITION_SHAPE ( 'NONE', 'NONE',  #171 ) ;
#36 = FACE_OUTER_BOUND ( 'NONE', #108, .T. ) ;
#37 = AXIS2_PLACEMENT_3D ( 'NONE', #83, #166, #96 ) ;
#38 = CARTESIAN_POINT ( 'NONE',  ( 0.0000000000000000000, 0.0000000000000000000, 1.750000000000000000 ) ) ;
#39 = PERSON_AND_ORGANIZATION ( #20, #165 ) ;
#40 = CARTESIAN_POINT ( 'NONE',  ( 0.0000000000000000000, 0.0000000000000000000, 1.750000000000000000 ) ) ;
#41 = PERSON_AND_ORGANIZATION_ROLE ( 'design_owner' ) ;
#42 = DIRECTION ( 'NONE',  ( 0.0000000000000000000, 0.0000000000000000000, 1.000000000000000000 ) ) ;
#43 = ORIENTED_EDGE ( 'NONE', *, *, #13, .T. ) ;
#44 = DIRECTION ( 'NONE',  ( 0.0000000000000000000, 0.0000000000000000000, 1.000000000000000000 ) ) ;
#45 = CALENDAR_DATE ( 2019, 28, 1 ) ;
#46 = LOCAL_TIME ( 14, 1, 4.000000000000000000, #117 ) ;
#47 = ADVANCED_FACE ( 'NONE', ( #130 ), #67, .F. ) ;
#48 = CC_DESIGN_PERSON_AND_ORGANIZATION_ASSIGNMENT ( #132, #41, ( #4 ) ) ;
#49 = DATE_AND_TIME ( #118, #53 ) ;
#50 = AXIS2_PLACEMENT_3D ( 'NONE', #54, #154, #84 ) ;
#51 = APPROVAL_PERSON_ORGANIZATION ( #80, #95, #85 ) ;
#52 = CC_DESIGN_DATE_AND_TIME_ASSIGNMENT ( #9, #60, ( #171 ) ) ;
#53 = LOCAL_TIME ( 14, 1, 4.000000000000000000, #123 ) ;
#54 = CARTESIAN_POINT ( 'NONE',  ( 0.0000000000000000000, 0.0000000000000000000, 1.750000000000000000 ) ) ;
#55 = DIRECTION ( 'NONE',  ( 0.0000000000000000000, 0.0000000000000000000, 1.000000000000000000 ) ) ;
#56 = CC_DESIGN_SECURITY_CLASSIFICATION ( #6, ( #163 ) ) ;
#57 = DIRECTION ( 'NONE',  ( 1.000000000000000000, 0.0000000000000000000, 0.0000000000000000000 ) ) ;
#58 = CALENDAR_DATE ( 2019, 28, 1 ) ;
#59 = CALENDAR_DATE ( 2019, 28, 1 ) ;
#60 = DATE_TIME_ROLE ( 'creation_date' ) ;
#61 = PERSON_AND_ORGANIZATION_ROLE ( 'design_supplier' ) ;
#62 = AXIS2_PLACEMENT_3D ( 'NONE', #11, #119, #14 ) ;
#63 = APPROVAL ( #158, 'UNSPECIFIED' ) ;
#64 = ORIENTED_EDGE ( 'NONE', *, *, #150, .F. ) ;
#65 = UNCERTAINTY_MEASURE_WITH_UNIT (LENGTH_MEASURE( 1.000000000000000100E-005 ), #145, 'distance_accuracy_value', 'NONE');
#66 = CLOSED_SHELL ( 'NONE', ( #102, #148, #2, #47 ) ) ;
#67 = PLANE ( 'NONE',  #62 ) ;
#68 = ORIENTED_EDGE ( 'NONE', *, *, #7, .T. ) ;
#69 = PLANE ( 'NONE',  #50 ) ;
#70 = AXIS2_PLACEMENT_3D ( 'NONE', #74, #44, #73 ) ;
#71 = CC_DESIGN_PERSON_AND_ORGANIZATION_ASSIGNMENT ( #152, #100, ( #163 ) ) ;
#72 = APPLICATION_CONTEXT ( 'configuration controlled 3d designs of mechanical parts and assemblies' ) ;
#73 = DIRECTION ( 'NONE',  ( 1.000000000000000000, 0.0000000000000000000, 0.0000000000000000000 ) ) ;
#74 = CARTESIAN_POINT ( 'NONE',  ( 0.0000000000000000000, 0.0000000000000000000, 0.0000000000000000000 ) ) ;
#75 = CIRCLE ( 'NONE', #37, 2.499999999999999600 ) ;
#76 =( NAMED_UNIT ( * ) SI_UNIT ( $, .STERADIAN. ) SOLID_ANGLE_UNIT ( ) );
#77 = PERSON_AND_ORGANIZATION ( #20, #165 ) ;
#78 = EDGE_LOOP ( 'NONE', ( #175, #94 ) ) ;
#79 = AXIS2_PLACEMENT_3D ( 'NONE', #26, #55, #57 ) ;
#80 = PERSON_AND_ORGANIZATION ( #20, #165 ) ;
#81 = ORIENTED_EDGE ( 'NONE', *, *, #161, .F. ) ;
#82 =( GEOMETRIC_REPRESENTATION_CONTEXT ( 3 ) GLOBAL_UNCERTAINTY_ASSIGNED_CONTEXT ( ( #65 ) ) GLOBAL_UNIT_ASSIGNED_CONTEXT ( ( #145, #27, #76 ) ) REPRESENTATION_CONTEXT ( 'NONE', 'WORKASPACE' ) );
#83 = CARTESIAN_POINT ( 'NONE',  ( 0.0000000000000000000, 0.0000000000000000000, 0.0000000000000000000 ) ) ;
#84 = DIRECTION ( 'NONE',  ( 1.000000000000000000, 0.0000000000000000000, -0.0000000000000000000 ) ) ;
#85 = APPROVAL_ROLE ( '' ) ;
#86 = LOCAL_TIME ( 14, 1, 4.000000000000000000, #89 ) ;
#87 = APPROVAL_DATE_TIME ( #49, #63 ) ;
#88 = APPROVAL_ROLE ( '' ) ;
#89 = COORDINATED_UNIVERSAL_TIME_OFFSET ( 5, 0, .BEHIND. ) ;
#90 = AXIS2_PLACEMENT_3D ( 'NONE', #38, #97, #167 ) ;
#91 = LOCAL_TIME ( 14, 1, 4.000000000000000000, #93 ) ;
#92 = CIRCLE ( 'NONE', #90, 2.499999999999999600 ) ;
#93 = COORDINATED_UNIVERSAL_TIME_OFFSET ( 5, 0, .BEHIND. ) ;
#94 = ORIENTED_EDGE ( 'NONE', *, *, #128, .F. ) ;
#95 = APPROVAL ( #16, 'UNSPECIFIED' ) ;
#96 = DIRECTION ( 'NONE',  ( 1.000000000000000000, 0.0000000000000000000, 0.0000000000000000000 ) ) ;
#97 = DIRECTION ( 'NONE',  ( 0.0000000000000000000, 0.0000000000000000000, 1.000000000000000000 ) ) ;
#98 = AXIS2_PLACEMENT_3D ( 'NONE', #112, #173, #29 ) ;
#99 = VECTOR ( 'NONE', #111, 1000.000000000000000 ) ;
#100 = PERSON_AND_ORGANIZATION_ROLE ( 'creator' ) ;
#101 = CYLINDRICAL_SURFACE ( 'NONE', #98, 2.499999999999999600 ) ;
#102 = ADVANCED_FACE ( 'NONE', ( #36 ), #101, .T. ) ;
#103 = ORIENTED_EDGE ( 'NONE', *, *, #7, .F. ) ;
#104 = CC_DESIGN_DATE_AND_TIME_ASSIGNMENT ( #18, #144, ( #6 ) ) ;
#105 = ORIENTED_EDGE ( 'NONE', *, *, #13, .F. ) ;
#106 = CARTESIAN_POINT ( 'NONE',  ( -2.499999999999999600, 0.0000000000000000000, 1.750000000000000000 ) ) ;
#107 = APPROVAL_DATE_TIME ( #32, #1 ) ;
#108 = EDGE_LOOP ( 'NONE', ( #103, #24, #110, #81 ) ) ;
#109 = APPROVAL_DATE_TIME ( #116, #95 ) ;
#110 = ORIENTED_EDGE ( 'NONE', *, *, #128, .T. ) ;
#111 = DIRECTION ( 'NONE',  ( -0.0000000000000000000, -0.0000000000000000000, -1.000000000000000000 ) ) ;
#112 = CARTESIAN_POINT ( 'NONE',  ( 0.0000000000000000000, 0.0000000000000000000, 1.750000000000000000 ) ) ;
#113 = PERSON_AND_ORGANIZATION_ROLE ( 'classification_officer' ) ;
#114 = SECURITY_CLASSIFICATION_LEVEL ( 'unclassified' ) ;
#115 = PRODUCT_RELATED_PRODUCT_CATEGORY ( 'detail', '', ( #4 ) ) ;
#116 = DATE_AND_TIME ( #125, #164 ) ;
#117 = COORDINATED_UNIVERSAL_TIME_OFFSET ( 5, 0, .BEHIND. ) ;
#118 = CALENDAR_DATE ( 2019, 28, 1 ) ;
#119 = DIRECTION ( 'NONE',  ( 0.0000000000000000000, 0.0000000000000000000, 1.000000000000000000 ) ) ;
#120 = AXIS2_PLACEMENT_3D ( 'NONE', #40, #170, #17 ) ;
#121 = APPROVAL_STATUS ( 'not_yet_approved' ) ;
#122 = CARTESIAN_POINT ( 'NONE',  ( 0.0000000000000000000, 0.0000000000000000000, 0.0000000000000000000 ) ) ;
#123 = COORDINATED_UNIVERSAL_TIME_OFFSET ( 5, 0, .BEHIND. ) ;
#124 = APPLICATION_CONTEXT ( 'configuration controlled 3d designs of mechanical parts and assemblies' ) ;
#125 = CALENDAR_DATE ( 2019, 28, 1 ) ;
#126 = CC_DESIGN_APPROVAL ( #1, ( #6 ) ) ;
#127 = LINE ( 'NONE', #31, #99 ) ;
#128 = EDGE_CURVE ( 'NONE', #5, #137, #162, .T. ) ;
#129 = PERSON_AND_ORGANIZATION ( #20, #165 ) ;
#130 = FACE_OUTER_BOUND ( 'NONE', #78, .T. ) ;
#131 = DIRECTION ( 'NONE',  ( 1.000000000000000000, 0.0000000000000000000, 0.0000000000000000000 ) ) ;
#132 = PERSON_AND_ORGANIZATION ( #20, #165 ) ;
#133 = APPLICATION_PROTOCOL_DEFINITION ( 'international standard', 'config_control_design', 1994, #72 ) ;
#134 = APPLICATION_PROTOCOL_DEFINITION ( 'international standard', 'config_control_design', 1994, #124 ) ;
#135 = DESIGN_CONTEXT ( 'detailed design', #124, 'design' ) ;
#136 = EDGE_LOOP ( 'NONE', ( #64, #105, #3, #15 ) ) ;
#137 = VERTEX_POINT ( 'NONE', #157 ) ;
#138 = CARTESIAN_POINT ( 'NONE',  ( 2.499999999999999600, 3.061616997868382600E-016, 1.750000000000000000 ) ) ;
#139 = CC_DESIGN_APPROVAL ( #63, ( #171 ) ) ;
#140 = LINE ( 'NONE', #30, #28 ) ;
#141 = COORDINATED_UNIVERSAL_TIME_OFFSET ( 5, 0, .BEHIND. ) ;
#142 = APPROVAL_ROLE ( '' ) ;
#143 = PERSON_AND_ORGANIZATION_ROLE ( 'creator' ) ;
#144 = DATE_TIME_ROLE ( 'classification_date' ) ;
#145 =( LENGTH_UNIT ( ) NAMED_UNIT ( * ) SI_UNIT ( .MILLI., .METRE. ) );
#146 = ADVANCED_BREP_SHAPE_REPRESENTATION ( 'Web Model 43888_83369', ( #25, #172 ), #82 ) ;
#147 = APPROVAL_PERSON_ORGANIZATION ( #39, #1, #88 ) ;
#148 = ADVANCED_FACE ( 'NONE', ( #34 ), #156, .T. ) ;
#149 = CIRCLE ( 'NONE', #79, 2.499999999999999600 ) ;
#150 = EDGE_CURVE ( 'NONE', #23, #5, #140, .T. ) ;
#151 = CC_DESIGN_PERSON_AND_ORGANIZATION_ASSIGNMENT ( #10, #143, ( #171 ) ) ;
#152 = PERSON_AND_ORGANIZATION ( #20, #165 ) ;
#153 = SHAPE_DEFINITION_REPRESENTATION ( #35, #146 ) ;
#154 = DIRECTION ( 'NONE',  ( 0.0000000000000000000, 0.0000000000000000000, 1.000000000000000000 ) ) ;
#155 = MECHANICAL_CONTEXT ( 'NONE', #72, 'mechanical' ) ;
#156 = CYLINDRICAL_SURFACE ( 'NONE', #120, 2.499999999999999600 ) ;
#157 = CARTESIAN_POINT ( 'NONE',  ( -2.499999999999999600, 0.0000000000000000000, 0.0000000000000000000 ) ) ;
#158 = APPROVAL_STATUS ( 'not_yet_approved' ) ;
#159 = FACE_OUTER_BOUND ( 'NONE', #19, .T. ) ;
#160 = CC_DESIGN_APPROVAL ( #95, ( #163 ) ) ;
#161 = EDGE_CURVE ( 'NONE', #33, #137, #127, .T. ) ;
#162 = CIRCLE ( 'NONE', #70, 2.499999999999999600 ) ;
#163 = PRODUCT_DEFINITION_FORMATION_WITH_SPECIFIED_SOURCE ( 'ANY', '', #4, .NOT_KNOWN. ) ;
#164 = LOCAL_TIME ( 14, 1, 4.000000000000000000, #141 ) ;
#165 = ORGANIZATION ( 'UNSPECIFIED', 'UNSPECIFIED', '' ) ;
#166 = DIRECTION ( 'NONE',  ( 0.0000000000000000000, 0.0000000000000000000, 1.000000000000000000 ) ) ;
#167 = DIRECTION ( 'NONE',  ( 1.000000000000000000, 0.0000000000000000000, 0.0000000000000000000 ) ) ;
#168 = APPROVAL_PERSON_ORGANIZATION ( #129, #63, #142 ) ;
#169 = PERSON_AND_ORGANIZATION ( #20, #165 ) ;
#170 = DIRECTION ( 'NONE',  ( -0.0000000000000000000, -0.0000000000000000000, -1.000000000000000000 ) ) ;
#171 = PRODUCT_DEFINITION ( 'UNKNOWN', '', #163, #135 ) ;
#172 = AXIS2_PLACEMENT_3D ( 'NONE', #122, #42, #131 ) ;
#173 = DIRECTION ( 'NONE',  ( -0.0000000000000000000, -0.0000000000000000000, -1.000000000000000000 ) ) ;
#174 = DIRECTION ( 'NONE',  ( -0.0000000000000000000, -0.0000000000000000000, -1.000000000000000000 ) ) ;
#175 = ORIENTED_EDGE ( 'NONE', *, *, #21, .F. ) ;
ENDSEC;
END-ISO-10303-21;
