ISO-10303-21;
HEADER;
FILE_DESCRIPTION (( 'STEP AP203' ),
    '1' );
FILE_NAME ('TTN225628-E0W.STEP',
    '2022-08-12T15:55:45',
    ( '' ),
    ( '' ),
    'SwSTEP 2.0',
    'SolidWorks 2018',
    '' );
FILE_SCHEMA (( 'CONFIG_CONTROL_DESIGN' ));
ENDSEC;

DATA;
#1 = ORIENTED_EDGE ( 'NONE', *, *, #104, .T. ) ;
#2 = CARTESIAN_POINT ( 'NONE',  ( 0.000000000000000000, 2.075659266883385903E-18, 0.007600264045914064889 ) ) ;
#3 = PERSON_AND_ORGANIZATION_ROLE ( 'creator' ) ;
#4 = DIRECTION ( 'NONE',  ( 0.000000000000000000, 1.000000000000000000, 2.070593002378967180E-16 ) ) ;
#5 = DATE_TIME_ROLE ( 'classification_date' ) ;
#6 = EDGE_LOOP ( 'NONE', ( #162, #64, #196, #273 ) ) ;
#7 = EDGE_LOOP ( 'NONE', ( #71, #284, #138, #148 ) ) ;
#8 = LOCAL_TIME ( 11, 55, 45.00000000000000000, #275 ) ;
#9 = APPROVAL_ROLE ( '' ) ;
#10 = VERTEX_POINT ( 'NONE', #176 ) ;
#11 = CC_DESIGN_PERSON_AND_ORGANIZATION_ASSIGNMENT ( #262, #3, ( #164 ) ) ;
#12 = AXIS2_PLACEMENT_3D ( 'NONE', #241, #319, #169 ) ;
#13 = ORIENTED_EDGE ( 'NONE', *, *, #237, .F. ) ;
#14 = VECTOR ( 'NONE', #143, 1.000000000000000000 ) ;
#15 = CARTESIAN_POINT ( 'NONE',  ( 0.000000000000000000, -5.169166366122924209E-19, 0.004814056043390786341 ) ) ;
#16 = CALENDAR_DATE ( 2022, 12, 8 ) ;
#17 = ORIENTED_EDGE ( 'NONE', *, *, #172, .F. ) ;
#18 = ORIENTED_EDGE ( 'NONE', *, *, #140, .T. ) ;
#19 = DIRECTION ( 'NONE',  ( 0.000000000000000000, 0.000000000000000000, 1.000000000000000000 ) ) ;
#20 = AXIS2_PLACEMENT_3D ( 'NONE', #2, #203, #180 ) ;
#21 = DIRECTION ( 'NONE',  ( 0.000000000000000000, -1.000000000000000000, -2.048885995248197167E-16 ) ) ;
#22 = CARTESIAN_POINT ( 'NONE',  ( 0.000000000000000000, 0.000000000000000000, 0.01349999999999999985 ) ) ;
#23 = CYLINDRICAL_SURFACE ( 'NONE', #89, 0.01270000000000000122 ) ;
#24 = EDGE_LOOP ( 'NONE', ( #123, #199, #250, #54 ) ) ;
#25 = DIRECTION ( 'NONE',  ( -0.000000000000000000, -1.836909530733566134E-16, 1.000000000000000000 ) ) ;
#26 = DIRECTION ( 'NONE',  ( 1.000000000000000000, 0.000000000000000000, 0.000000000000000000 ) ) ;
#27 = CIRCLE ( 'NONE', #185, 0.01270000000000000122 ) ;
#28 = EDGE_LOOP ( 'NONE', ( #17, #274, #208, #72 ) ) ;
#29 = EDGE_LOOP ( 'NONE', ( #94, #198, #324 ) ) ;
#30 = PERSON_AND_ORGANIZATION ( #32, #239 ) ;
#31 = LINE ( 'NONE', #304, #288 ) ;
#32 = PERSON ( 'UNSPECIFIED', 'UNSPECIFIED', 'UNSPECIFIED', ('UNSPECIFIED'), ('UNSPECIFIED'), ('UNSPECIFIED') ) ;
#33 = PRODUCT_DEFINITION ( 'UNKNOWN', '', #164, #211 ) ;
#34 = EDGE_CURVE ( 'NONE', #10, #207, #31, .T. ) ;
#35 = ADVANCED_FACE ( 'NONE', ( #90 ), #23, .T. ) ;
#36 = CIRCLE ( 'NONE', #60, 0.01549999999999999815 ) ;
#37 = DIRECTION ( 'NONE',  ( 0.000000000000000000, 1.836909530733624559E-16, -1.000000000000000000 ) ) ;
#38 =( NAMED_UNIT ( * ) PLANE_ANGLE_UNIT ( ) SI_UNIT ( $, .RADIAN. ) );
#39 = DIRECTION ( 'NONE',  ( 0.000000000000000000, -1.000000000000000000, -1.707404996040164265E-16 ) ) ;
#40 = AXIS2_PLACEMENT_3D ( 'NONE', #281, #56, #39 ) ;
#41 = CIRCLE ( 'NONE', #20, 0.01256685988494888120 ) ;
#42 = CIRCLE ( 'NONE', #51, 0.01270000000000000122 ) ;
#43 = LOCAL_TIME ( 11, 55, 45.00000000000000000, #83 ) ;
#44 = CARTESIAN_POINT ( 'NONE',  ( -1.538996473343592129E-18, -0.01256685988494887773, 0.007600264045914063155 ) ) ;
#45 = CARTESIAN_POINT ( 'NONE',  ( 1.555301434917139097E-18, 0.01270000000000000295, 0.004814056043390788943 ) ) ;
#46 = DIRECTION ( 'NONE',  ( 0.000000000000000000, -0.3005371535187566501, 0.9537701082309318901 ) ) ;
#47 = CC_DESIGN_APPROVAL ( #279, ( #144 ) ) ;
#48 = AXIS2_PLACEMENT_3D ( 'NONE', #294, #251, #311 ) ;
#49 = CIRCLE ( 'NONE', #48, 0.01689999999999999142 ) ;
#50 = LOCAL_TIME ( 11, 55, 45.00000000000000000, #192 ) ;
#51 = AXIS2_PLACEMENT_3D ( 'NONE', #222, #190, #260 ) ;
#52 = CONICAL_SURFACE ( 'NONE', #314, 0.01270000000000000122, 0.3052557937996869253 ) ;
#53 = DATE_AND_TIME ( #102, #43 ) ;
#54 = ORIENTED_EDGE ( 'NONE', *, *, #277, .F. ) ;
#55 = ADVANCED_FACE ( 'NONE', ( #278 ), #74, .F. ) ;
#56 = DIRECTION ( 'NONE',  ( -0.000000000000000000, -1.836909530733566134E-16, 1.000000000000000000 ) ) ;
#57 = CARTESIAN_POINT ( 'NONE',  ( 0.000000000000000000, 4.139203652219238257E-18, 0.002000000000000008715 ) ) ;
#58 = CARTESIAN_POINT ( 'NONE',  ( 0.000000000000000000, 0.000000000000000000, 0.000000000000000000 ) ) ;
#59 = CC_DESIGN_PERSON_AND_ORGANIZATION_ASSIGNMENT ( #30, #315, ( #164 ) ) ;
#60 = AXIS2_PLACEMENT_3D ( 'NONE', #22, #258, #19 ) ;
#61 = VERTEX_POINT ( 'NONE', #122 ) ;
#62 = CARTESIAN_POINT ( 'NONE',  ( 0.000000000000000000, 1.898108503297828803E-18, -0.002000000000000000042 ) ) ;
#63 = CARTESIAN_POINT ( 'NONE',  ( 0.000000000000000000, 0.000000000000000000, 0.01349999999999999985 ) ) ;
#64 = ORIENTED_EDGE ( 'NONE', *, *, #277, .T. ) ;
#65 = CARTESIAN_POINT ( 'NONE',  ( 0.000000000000000000, -1.019505382816834575E-18, 0.007550112108186934554 ) ) ;
#66 = ORIENTED_EDGE ( 'NONE', *, *, #177, .F. ) ;
#67 = AXIS2_PLACEMENT_3D ( 'NONE', #93, #113, #137 ) ;
#68 = CARTESIAN_POINT ( 'NONE',  ( 0.000000000000000000, 0.01256685988494887947, 0.007600264045914070961 ) ) ;
#69 = DIRECTION ( 'NONE',  ( 0.000000000000000000, 1.000000000000000000, 2.048885995248197167E-16 ) ) ;
#70 = ORIENTED_EDGE ( 'NONE', *, *, #267, .T. ) ;
#71 = ORIENTED_EDGE ( 'NONE', *, *, #243, .F. ) ;
#72 = ORIENTED_EDGE ( 'NONE', *, *, #255, .F. ) ;
#73 = PERSON_AND_ORGANIZATION ( #32, #239 ) ;
#74 = SPHERICAL_SURFACE ( 'NONE', #307, 0.01689999999999999142 ) ;
#75 = ADVANCED_BREP_SHAPE_REPRESENTATION ( 'TTN225628-E0W', ( #135, #125 ), #296 ) ;
#76 = CC_DESIGN_SECURITY_CLASSIFICATION ( #144, ( #164 ) ) ;
#77 = AXIS2_PLACEMENT_3D ( 'NONE', #245, #99, #101 ) ;
#78 = ORIENTED_EDGE ( 'NONE', *, *, #161, .F. ) ;
#79 = ADVANCED_FACE ( 'NONE', ( #212 ), #298, .F. ) ;
#80 = FACE_OUTER_BOUND ( 'NONE', #202, .T. ) ;
#81 = DIRECTION ( 'NONE',  ( 0.000000000000000000, 1.000000000000000000, 2.070593002378967180E-16 ) ) ;
#82 = PERSON_AND_ORGANIZATION_ROLE ( 'classification_officer' ) ;
#83 = COORDINATED_UNIVERSAL_TIME_OFFSET ( 5, 0, .BEHIND. ) ;
#84 = ORIENTED_EDGE ( 'NONE', *, *, #248, .T. ) ;
#85 = ORIENTED_EDGE ( 'NONE', *, *, #210, .T. ) ;
#86 = DATE_TIME_ROLE ( 'creation_date' ) ;
#87 = DATE_AND_TIME ( #159, #8 ) ;
#88 =( LENGTH_UNIT ( ) NAMED_UNIT ( * ) SI_UNIT ( $, .METRE. ) );
#89 = AXIS2_PLACEMENT_3D ( 'NONE', #197, #120, #224 ) ;
#90 = FACE_OUTER_BOUND ( 'NONE', #268, .T. ) ;
#91 = FACE_OUTER_BOUND ( 'NONE', #24, .T. ) ;
#92 = ORIENTED_EDGE ( 'NONE', *, *, #300, .T. ) ;
#93 = CARTESIAN_POINT ( 'NONE',  ( 0.000000000000000000, 0.000000000000000000, 0.01349999999999999985 ) ) ;
#94 = ORIENTED_EDGE ( 'NONE', *, *, #248, .F. ) ;
#95 = DIRECTION ( 'NONE',  ( 0.000000000000000000, 1.836909530733569092E-16, -1.000000000000000000 ) ) ;
#96 = ORIENTED_EDGE ( 'NONE', *, *, #300, .F. ) ;
#97 = DIRECTION ( 'NONE',  ( 0.000000000000000000, 1.000000000000000000, 2.048885995248197167E-16 ) ) ;
#98 = PRODUCT_DEFINITION_SHAPE ( 'NONE', 'NONE',  #33 ) ;
#99 = DIRECTION ( 'NONE',  ( -1.000000000000000000, 0.000000000000000000, 0.000000000000000000 ) ) ;
#100 = LINE ( 'NONE', #141, #204 ) ;
#101 = DIRECTION ( 'NONE',  ( 0.000000000000000000, 1.000000000000000000, 2.052927190505098147E-16 ) ) ;
#102 = CALENDAR_DATE ( 2022, 12, 8 ) ;
#103 = APPROVAL_PERSON_ORGANIZATION ( #226, #289, #129 ) ;
#104 = EDGE_CURVE ( 'NONE', #130, #153, #41, .T. ) ;
#105 = ADVANCED_FACE ( 'NONE', ( #142 ), #155, .T. ) ;
#106 = LINE ( 'NONE', #68, #249 ) ;
#107 = CARTESIAN_POINT ( 'NONE',  ( 0.000000000000000000, -1.028717840056407129E-18, 0.007600264045914068359 ) ) ;
#108 = COORDINATED_UNIVERSAL_TIME_OFFSET ( 5, 0, .BEHIND. ) ;
#109 = APPLICATION_CONTEXT ( 'configuration controlled 3d designs of mechanical parts and assemblies' ) ;
#110 = MECHANICAL_CONTEXT ( 'NONE', #109, 'mechanical' ) ;
#111 = LINE ( 'NONE', #214, #238 ) ;
#112 = APPROVAL_DATE_TIME ( #87, #289 ) ;
#113 = DIRECTION ( 'NONE',  ( 1.000000000000000000, 0.000000000000000000, 0.000000000000000000 ) ) ;
#114 = CARTESIAN_POINT ( 'NONE',  ( 0.000000000000000000, -5.169166366122924209E-19, 0.004814056043390786341 ) ) ;
#115 = AXIS2_PLACEMENT_3D ( 'NONE', #264, #95, #218 ) ;
#116 = DIRECTION ( 'NONE',  ( -0.000000000000000000, -1.836909530733566134E-16, 1.000000000000000000 ) ) ;
#117 = CARTESIAN_POINT ( 'NONE',  ( 0.000000000000000000, 2.075659266883385903E-18, 0.007600264045914064889 ) ) ;
#118 = CONICAL_SURFACE ( 'NONE', #152, 0.01256685988494888120, 1.210548863402940656 ) ;
#119 = DATE_AND_TIME ( #16, #50 ) ;
#120 = DIRECTION ( 'NONE',  ( -0.000000000000000000, -1.836909530733566134E-16, 1.000000000000000000 ) ) ;
#121 = EDGE_LOOP ( 'NONE', ( #215, #85, #92 ) ) ;
#122 = CARTESIAN_POINT ( 'NONE',  ( 0.000000000000000000, -0.01258658274986970346, 0.004454120568972722016 ) ) ;
#123 = ORIENTED_EDGE ( 'NONE', *, *, #34, .F. ) ;
#124 = ADVANCED_FACE ( 'NONE', ( #303 ), #309, .T. ) ;
#125 = AXIS2_PLACEMENT_3D ( 'NONE', #58, #312, #205 ) ;
#126 = CIRCLE ( 'NONE', #201, 0.01256685988494888120 ) ;
#127 = ADVANCED_FACE ( 'NONE', ( #316 ), #118, .T. ) ;
#128 = CLOSED_SHELL ( 'NONE', ( #127, #179, #35, #228, #79, #55, #308, #124, #154, #105 ) ) ;
#129 = APPROVAL_ROLE ( '' ) ;
#130 = VERTEX_POINT ( 'NONE', #183 ) ;
#131 = ORIENTED_EDGE ( 'NONE', *, *, #237, .T. ) ;
#132 = DATE_AND_TIME ( #305, #310 ) ;
#133 = APPROVAL_STATUS ( 'not_yet_approved' ) ;
#134 = AXIS2_PLACEMENT_3D ( 'NONE', #114, #170, #295 ) ;
#135 = MANIFOLD_SOLID_BREP ( 'TTN225640-1-solid1', #128 ) ;
#136 = VERTEX_POINT ( 'NONE', #57 ) ;
#137 = DIRECTION ( 'NONE',  ( 0.000000000000000000, -1.000000000000000000, -2.238352872228138170E-16 ) ) ;
#138 = ORIENTED_EDGE ( 'NONE', *, *, #161, .T. ) ;
#139 = EDGE_LOOP ( 'NONE', ( #259, #70, #1 ) ) ;
#140 = EDGE_CURVE ( 'NONE', #283, #207, #42, .T. ) ;
#141 = CARTESIAN_POINT ( 'NONE',  ( 0.000000000000000000, -0.01270000000000000122, 0.001999999999999997873 ) ) ;
#142 = FACE_OUTER_BOUND ( 'NONE', #7, .T. ) ;
#143 = DIRECTION ( 'NONE',  ( 1.146036255800480348E-16, -0.9358096200458738689, -0.3525058226889269397 ) ) ;
#144 = SECURITY_CLASSIFICATION ( '', '', #158 ) ;
#145 = DIRECTION ( 'NONE',  ( 3.680518630816017983E-17, 0.3005371535187563170, 0.9537701082309318901 ) ) ;
#146 = CIRCLE ( 'NONE', #276, 0.01258658274986970346 ) ;
#147 = APPROVAL_PERSON_ORGANIZATION ( #292, #279, #9 ) ;
#148 = ORIENTED_EDGE ( 'NONE', *, *, #290, .F. ) ;
#149 = VERTEX_POINT ( 'NONE', #297 ) ;
#150 = PRODUCT ( 'TTN225628-E0W', 'TTN225628-E0W', '', ( #110 ) ) ;
#151 = COORDINATED_UNIVERSAL_TIME_OFFSET ( 5, 0, .BEHIND. ) ;
#152 = AXIS2_PLACEMENT_3D ( 'NONE', #231, #157, #81 ) ;
#153 = VERTEX_POINT ( 'NONE', #44 ) ;
#154 = ADVANCED_FACE ( 'NONE', ( #91 ), #52, .T. ) ;
#155 = CONICAL_SURFACE ( 'NONE', #253, 0.01256685988494888120, 1.210548863402940656 ) ;
#156 = VERTEX_POINT ( 'NONE', #62 ) ;
#157 = DIRECTION ( 'NONE',  ( 0.000000000000000000, 1.836909530733624559E-16, -1.000000000000000000 ) ) ;
#158 = SECURITY_CLASSIFICATION_LEVEL ( 'unclassified' ) ;
#159 = CALENDAR_DATE ( 2022, 12, 8 ) ;
#160 = PERSON_AND_ORGANIZATION_ROLE ( 'creator' ) ;
#161 = EDGE_CURVE ( 'NONE', #130, #149, #106, .T. ) ;
#162 = ORIENTED_EDGE ( 'NONE', *, *, #186, .F. ) ;
#163 = APPROVAL_STATUS ( 'not_yet_approved' ) ;
#164 = PRODUCT_DEFINITION_FORMATION_WITH_SPECIFIED_SOURCE ( 'ANY', '', #150, .NOT_KNOWN. ) ;
#165 = LINE ( 'NONE', #219, #223 ) ;
#166 = DIRECTION ( 'NONE',  ( -0.000000000000000000, -1.836909530733569092E-16, 1.000000000000000000 ) ) ;
#167 = DIRECTION ( 'NONE',  ( 0.000000000000000000, 0.9358096200458740910, -0.3525058226889266066 ) ) ;
#168 = DIRECTION ( 'NONE',  ( 0.000000000000000000, 1.836909530733624559E-16, -1.000000000000000000 ) ) ;
#169 = DIRECTION ( 'NONE',  ( 1.224646799147353207E-16, 1.000000000000000000, 0.000000000000000000 ) ) ;
#170 = DIRECTION ( 'NONE',  ( -0.000000000000000000, -1.836909530733569092E-16, 1.000000000000000000 ) ) ;
#171 = CC_DESIGN_DATE_AND_TIME_ASSIGNMENT ( #119, #5, ( #144 ) ) ;
#172 = EDGE_CURVE ( 'NONE', #10, #61, #175, .T. ) ;
#173 = DIRECTION ( 'NONE',  ( -0.000000000000000000, -1.836909530733624559E-16, 1.000000000000000000 ) ) ;
#174 = EDGE_CURVE ( 'NONE', #156, #10, #291, .T. ) ;
#175 = CIRCLE ( 'NONE', #115, 0.01258658274986970346 ) ;
#176 = CARTESIAN_POINT ( 'NONE',  ( 1.541411827683122498E-18, 0.01258658274986970693, 0.004454120568972727220 ) ) ;
#177 = EDGE_CURVE ( 'NONE', #283, #326, #100, .T. ) ;
#178 = CONICAL_SURFACE ( 'NONE', #325, 0.01270000000000000122, 0.3052557937996869253 ) ;
#179 = ADVANCED_FACE ( 'NONE', ( #323 ), #178, .T. ) ;
#180 = DIRECTION ( 'NONE',  ( 0.000000000000000000, -1.000000000000000000, -2.070593002378967180E-16 ) ) ;
#181 = PERSON_AND_ORGANIZATION ( #32, #239 ) ;
#182 = DIRECTION ( 'NONE',  ( 0.000000000000000000, -1.000000000000000000, -2.067348434182540612E-16 ) ) ;
#183 = CARTESIAN_POINT ( 'NONE',  ( 0.000000000000000000, 0.01256685988494888120, 0.007600264045914066624 ) ) ;
#184 = CC_DESIGN_PERSON_AND_ORGANIZATION_ASSIGNMENT ( #327, #82, ( #144 ) ) ;
#185 = AXIS2_PLACEMENT_3D ( 'NONE', #65, #320, #97 ) ;
#186 = EDGE_CURVE ( 'NONE', #207, #149, #111, .T. ) ;
#187 = SPHERICAL_SURFACE ( 'NONE', #67, 0.01549999999999999989 ) ;
#188 = ORIENTED_EDGE ( 'NONE', *, *, #186, .T. ) ;
#189 = DIRECTION ( 'NONE',  ( 0.000000000000000000, -1.000000000000000000, -2.238352872228138170E-16 ) ) ;
#190 = DIRECTION ( 'NONE',  ( -0.000000000000000000, -1.836909530733569092E-16, 1.000000000000000000 ) ) ;
#191 = DIRECTION ( 'NONE',  ( 0.000000000000000000, 0.000000000000000000, -1.000000000000000000 ) ) ;
#192 = COORDINATED_UNIVERSAL_TIME_OFFSET ( 5, 0, .BEHIND. ) ;
#193 = CARTESIAN_POINT ( 'NONE',  ( 0.000000000000000000, 0.000000000000000000, 0.01890000000000000013 ) ) ;
#194 = DIRECTION ( 'NONE',  ( 0.000000000000000000, -1.000000000000000000, -2.070593002378967180E-16 ) ) ;
#195 = CIRCLE ( 'NONE', #227, 0.01270000000000000122 ) ;
#196 = ORIENTED_EDGE ( 'NONE', *, *, #177, .T. ) ;
#197 = CARTESIAN_POINT ( 'NONE',  ( 0.000000000000000000, 0.000000000000000000, 0.002000000000000000042 ) ) ;
#198 = ORIENTED_EDGE ( 'NONE', *, *, #174, .T. ) ;
#199 = ORIENTED_EDGE ( 'NONE', *, *, #322, .F. ) ;
#200 = CALENDAR_DATE ( 2022, 12, 8 ) ;
#201 = AXIS2_PLACEMENT_3D ( 'NONE', #117, #173, #194 ) ;
#202 = EDGE_LOOP ( 'NONE', ( #257, #84, #261 ) ) ;
#203 = DIRECTION ( 'NONE',  ( -0.000000000000000000, -1.836909530733624559E-16, 1.000000000000000000 ) ) ;
#204 = VECTOR ( 'NONE', #116, 1.000000000000000000 ) ;
#205 = DIRECTION ( 'NONE',  ( 1.000000000000000000, 0.000000000000000000, 0.000000000000000000 ) ) ;
#206 = APPROVAL_STATUS ( 'not_yet_approved' ) ;
#207 = VERTEX_POINT ( 'NONE', #45 ) ;
#208 = ORIENTED_EDGE ( 'NONE', *, *, #140, .F. ) ;
#209 = APPROVAL_PERSON_ORGANIZATION ( #73, #229, #282 ) ;
#210 = EDGE_CURVE ( 'NONE', #136, #153, #49, .T. ) ;
#211 = DESIGN_CONTEXT ( 'detailed design', #287, 'design' ) ;
#212 = FACE_OUTER_BOUND ( 'NONE', #121, .T. ) ;
#213 = CIRCLE ( 'NONE', #240, 0.01689999999999999142 ) ;
#214 = CARTESIAN_POINT ( 'NONE',  ( 1.555301434917138711E-18, 0.01270000000000000122, 0.002000000000000002210 ) ) ;
#215 = ORIENTED_EDGE ( 'NONE', *, *, #267, .F. ) ;
#216 = ORIENTED_EDGE ( 'NONE', *, *, #243, .T. ) ;
#217 = LOCAL_TIME ( 11, 55, 45.00000000000000000, #151 ) ;
#218 = DIRECTION ( 'NONE',  ( 0.000000000000000000, -1.000000000000000000, -2.067348434182540612E-16 ) ) ;
#219 = CARTESIAN_POINT ( 'NONE',  ( 0.000000000000000000, -0.01270000000000000122, 0.004814056043390783739 ) ) ;
#220 = CARTESIAN_POINT ( 'NONE',  ( 0.000000000000000000, -5.169166366122924209E-19, 0.004814056043390786341 ) ) ;
#221 = CARTESIAN_POINT ( 'NONE',  ( 1.538996473343592322E-18, -0.01256685988494888294, 0.007600264045914065757 ) ) ;
#222 = CARTESIAN_POINT ( 'NONE',  ( 0.000000000000000000, -5.169166366122924209E-19, 0.004814056043390786341 ) ) ;
#223 = VECTOR ( 'NONE', #46, 1.000000000000000000 ) ;
#224 = DIRECTION ( 'NONE',  ( 0.000000000000000000, -1.000000000000000000, -1.707404996040164265E-16 ) ) ;
#225 = APPROVAL_DATE_TIME ( #53, #279 ) ;
#226 = PERSON_AND_ORGANIZATION ( #32, #239 ) ;
#227 = AXIS2_PLACEMENT_3D ( 'NONE', #299, #168, #69 ) ;
#228 = ADVANCED_FACE ( 'NONE', ( #230 ), #187, .T. ) ;
#229 = APPROVAL ( #206, 'UNSPECIFIED' ) ;
#230 = FACE_OUTER_BOUND ( 'NONE', #29, .T. ) ;
#231 = CARTESIAN_POINT ( 'NONE',  ( 0.000000000000000000, -1.028717840056407129E-18, 0.007600264045914068359 ) ) ;
#232 = APPLICATION_PROTOCOL_DEFINITION ( 'international standard', 'config_control_design', 1994, #287 ) ;
#233 = DATE_AND_TIME ( #200, #217 ) ;
#234 = PERSON_AND_ORGANIZATION_ROLE ( 'design_owner' ) ;
#235 = CARTESIAN_POINT ( 'NONE',  ( 0.000000000000000000, -0.01270000000000000295, 0.007550112108186931952 ) ) ;
#236 = AXIS2_PLACEMENT_3D ( 'NONE', #63, #301, #189 ) ;
#237 = EDGE_CURVE ( 'NONE', #149, #326, #195, .T. ) ;
#238 = VECTOR ( 'NONE', #25, 1.000000000000000000 ) ;
#239 = ORGANIZATION ( 'UNSPECIFIED', 'UNSPECIFIED', '' ) ;
#240 = AXIS2_PLACEMENT_3D ( 'NONE', #193, #26, #191 ) ;
#241 = CARTESIAN_POINT ( 'NONE',  ( 0.000000000000000000, 0.000000000000000000, 0.01349999999999999985 ) ) ;
#242 = UNCERTAINTY_MEASURE_WITH_UNIT (LENGTH_MEASURE( 1.000000000000000082E-05 ), #88, 'distance_accuracy_value', 'NONE');
#243 = EDGE_CURVE ( 'NONE', #153, #326, #271, .T. ) ;
#244 = CC_DESIGN_APPROVAL ( #289, ( #164 ) ) ;
#245 = CARTESIAN_POINT ( 'NONE',  ( 0.000000000000000000, 0.000000000000000000, 0.01890000000000000013 ) ) ;
#246 = DIRECTION ( 'NONE',  ( 0.000000000000000000, 1.000000000000000000, 2.052927190505098147E-16 ) ) ;
#247 = CC_DESIGN_PERSON_AND_ORGANIZATION_ASSIGNMENT ( #181, #234, ( #150 ) ) ;
#248 = EDGE_CURVE ( 'NONE', #156, #61, #36, .T. ) ;
#249 = VECTOR ( 'NONE', #167, 1.000000000000000000 ) ;
#250 = ORIENTED_EDGE ( 'NONE', *, *, #255, .T. ) ;
#251 = DIRECTION ( 'NONE',  ( -1.000000000000000000, 1.224646799147353207E-16, 2.249565377136128279E-32 ) ) ;
#252 = DIRECTION ( 'NONE',  ( 0.000000000000000000, 1.836909530733569092E-16, -1.000000000000000000 ) ) ;
#253 = AXIS2_PLACEMENT_3D ( 'NONE', #107, #37, #4 ) ;
#254 = CARTESIAN_POINT ( 'NONE',  ( 0.000000000000000000, 1.661646214072075633E-18, 0.004454120568972725486 ) ) ;
#255 = EDGE_CURVE ( 'NONE', #61, #283, #165, .T. ) ;
#256 = CC_DESIGN_DATE_AND_TIME_ASSIGNMENT ( #233, #86, ( #33 ) ) ;
#257 = ORIENTED_EDGE ( 'NONE', *, *, #174, .F. ) ;
#258 = DIRECTION ( 'NONE',  ( -1.000000000000000000, 0.000000000000000000, -0.000000000000000000 ) ) ;
#259 = ORIENTED_EDGE ( 'NONE', *, *, #210, .F. ) ;
#260 = DIRECTION ( 'NONE',  ( 0.000000000000000000, -1.000000000000000000, -2.048885995248197167E-16 ) ) ;
#261 = ORIENTED_EDGE ( 'NONE', *, *, #322, .T. ) ;
#262 = PERSON_AND_ORGANIZATION ( #32, #239 ) ;
#263 = CARTESIAN_POINT ( 'NONE',  ( 0.000000000000000000, -0.01270000000000000122, 0.004814056043390783739 ) ) ;
#264 = CARTESIAN_POINT ( 'NONE',  ( 0.000000000000000000, 1.661646214072075633E-18, 0.004454120568972725486 ) ) ;
#265 = CC_DESIGN_APPROVAL ( #229, ( #33 ) ) ;
#266 = SPHERICAL_SURFACE ( 'NONE', #236, 0.01549999999999999989 ) ;
#267 = EDGE_CURVE ( 'NONE', #136, #130, #213, .T. ) ;
#268 = EDGE_LOOP ( 'NONE', ( #18, #188, #131, #66 ) ) ;
#269 = DIRECTION ( 'NONE',  ( -1.000000000000000000, 0.000000000000000000, 0.000000000000000000 ) ) ;
#270 = CARTESIAN_POINT ( 'NONE',  ( 0.000000000000000000, 0.000000000000000000, 0.01890000000000000013 ) ) ;
#271 = LINE ( 'NONE', #221, #14 ) ;
#272 = SHAPE_DEFINITION_REPRESENTATION ( #98, #75 ) ;
#273 = ORIENTED_EDGE ( 'NONE', *, *, #290, .T. ) ;
#274 = ORIENTED_EDGE ( 'NONE', *, *, #34, .T. ) ;
#275 = COORDINATED_UNIVERSAL_TIME_OFFSET ( 5, 0, .BEHIND. ) ;
#276 = AXIS2_PLACEMENT_3D ( 'NONE', #254, #252, #182 ) ;
#277 = EDGE_CURVE ( 'NONE', #207, #283, #280, .T. ) ;
#278 = FACE_OUTER_BOUND ( 'NONE', #139, .T. ) ;
#279 = APPROVAL ( #163, 'UNSPECIFIED' ) ;
#280 = CIRCLE ( 'NONE', #134, 0.01270000000000000122 ) ;
#281 = CARTESIAN_POINT ( 'NONE',  ( 0.000000000000000000, 0.000000000000000000, 0.002000000000000000042 ) ) ;
#282 = APPROVAL_ROLE ( '' ) ;
#283 = VERTEX_POINT ( 'NONE', #263 ) ;
#284 = ORIENTED_EDGE ( 'NONE', *, *, #104, .F. ) ;
#285 = APPROVAL_DATE_TIME ( #132, #229 ) ;
#286 =( NAMED_UNIT ( * ) SI_UNIT ( $, .STERADIAN. ) SOLID_ANGLE_UNIT ( ) );
#287 = APPLICATION_CONTEXT ( 'configuration controlled 3d designs of mechanical parts and assemblies' ) ;
#288 = VECTOR ( 'NONE', #145, 1.000000000000000000 ) ;
#289 = APPROVAL ( #133, 'UNSPECIFIED' ) ;
#290 = EDGE_CURVE ( 'NONE', #326, #149, #27, .T. ) ;
#291 = CIRCLE ( 'NONE', #12, 0.01549999999999999989 ) ;
#292 = PERSON_AND_ORGANIZATION ( #32, #239 ) ;
#293 = PERSON_AND_ORGANIZATION ( #32, #239 ) ;
#294 = CARTESIAN_POINT ( 'NONE',  ( 0.000000000000000000, 0.000000000000000000, 0.01890000000000000013 ) ) ;
#295 = DIRECTION ( 'NONE',  ( 0.000000000000000000, -1.000000000000000000, -2.048885995248197167E-16 ) ) ;
#296 =( GEOMETRIC_REPRESENTATION_CONTEXT ( 3 ) GLOBAL_UNCERTAINTY_ASSIGNED_CONTEXT ( ( #242 ) ) GLOBAL_UNIT_ASSIGNED_CONTEXT ( ( #88, #38, #286 ) ) REPRESENTATION_CONTEXT ( 'NONE', 'WORKASPACE' ) );
#297 = CARTESIAN_POINT ( 'NONE',  ( 1.555301434917138711E-18, 0.01269999999999999948, 0.007550112108186937156 ) ) ;
#298 = SPHERICAL_SURFACE ( 'NONE', #77, 0.01689999999999999142 ) ;
#299 = CARTESIAN_POINT ( 'NONE',  ( 0.000000000000000000, -1.019505382816834575E-18, 0.007550112108186934554 ) ) ;
#300 = EDGE_CURVE ( 'NONE', #153, #130, #126, .T. ) ;
#301 = DIRECTION ( 'NONE',  ( 1.000000000000000000, 0.000000000000000000, 0.000000000000000000 ) ) ;
#302 = PRODUCT_RELATED_PRODUCT_CATEGORY ( 'detail', '', ( #150 ) ) ;
#303 = FACE_OUTER_BOUND ( 'NONE', #6, .T. ) ;
#304 = CARTESIAN_POINT ( 'NONE',  ( 1.555301434917138711E-18, 0.01270000000000000122, 0.004814056043390788943 ) ) ;
#305 = CALENDAR_DATE ( 2022, 12, 8 ) ;
#306 = CC_DESIGN_PERSON_AND_ORGANIZATION_ASSIGNMENT ( #293, #160, ( #33 ) ) ;
#307 = AXIS2_PLACEMENT_3D ( 'NONE', #270, #269, #246 ) ;
#308 = ADVANCED_FACE ( 'NONE', ( #80 ), #266, .T. ) ;
#309 = CYLINDRICAL_SURFACE ( 'NONE', #40, 0.01270000000000000122 ) ;
#310 = LOCAL_TIME ( 11, 55, 45.00000000000000000, #108 ) ;
#311 = DIRECTION ( 'NONE',  ( -1.224646799147353207E-16, -1.000000000000000000, 0.000000000000000000 ) ) ;
#312 = DIRECTION ( 'NONE',  ( 0.000000000000000000, 0.000000000000000000, 1.000000000000000000 ) ) ;
#313 = APPLICATION_PROTOCOL_DEFINITION ( 'international standard', 'config_control_design', 1994, #109 ) ;
#314 = AXIS2_PLACEMENT_3D ( 'NONE', #15, #166, #21 ) ;
#315 = PERSON_AND_ORGANIZATION_ROLE ( 'design_supplier' ) ;
#316 = FACE_OUTER_BOUND ( 'NONE', #317, .T. ) ;
#317 = EDGE_LOOP ( 'NONE', ( #96, #216, #13, #78 ) ) ;
#318 = DIRECTION ( 'NONE',  ( -0.000000000000000000, -1.836909530733569092E-16, 1.000000000000000000 ) ) ;
#319 = DIRECTION ( 'NONE',  ( 1.000000000000000000, -1.224646799147353207E-16, -2.249565377136128279E-32 ) ) ;
#320 = DIRECTION ( 'NONE',  ( 0.000000000000000000, 1.836909530733624559E-16, -1.000000000000000000 ) ) ;
#321 = DIRECTION ( 'NONE',  ( 0.000000000000000000, -1.000000000000000000, -2.048885995248197167E-16 ) ) ;
#322 = EDGE_CURVE ( 'NONE', #61, #10, #146, .T. ) ;
#323 = FACE_OUTER_BOUND ( 'NONE', #28, .T. ) ;
#324 = ORIENTED_EDGE ( 'NONE', *, *, #172, .T. ) ;
#325 = AXIS2_PLACEMENT_3D ( 'NONE', #220, #318, #321 ) ;
#326 = VERTEX_POINT ( 'NONE', #235 ) ;
#327 = PERSON_AND_ORGANIZATION ( #32, #239 ) ;
ENDSEC;
END-ISO-10303-21;
