ISO-10303-21;
HEADER;
FILE_DESCRIPTION (( 'STEP AP203' ),
    '1' );
FILE_NAME ('Web Model 64397MX_43742.step',
    '2017-10-30T13:00:06',
    ( '' ),
    ( '' ),
    'SwSTEP 2.0',
    'SolidWorks 2016',
    '' );
FILE_SCHEMA (( 'CONFIG_CONTROL_DESIGN' ));
ENDSEC;

DATA;
#1 = CARTESIAN_POINT ( 'NONE',  ( 6.349999999999998800, 6.350000000000000500, 3.000000000000000000 ) ) ;
#2 = APPROVAL_DATE_TIME ( #53, #8 ) ;
#3 = DIRECTION ( 'NONE',  ( 0.0000000000000000000, 0.0000000000000000000, -1.000000000000000000 ) ) ;
#4 = COORDINATED_UNIVERSAL_TIME_OFFSET ( 5, 0, .BEHIND. ) ;
#5 = ORIENTED_EDGE ( 'NONE', *, *, #75, .T. ) ;
#6 = APPROVAL_STATUS ( 'not_yet_approved' ) ;
#7 = SECURITY_CLASSIFICATION_LEVEL ( 'unclassified' ) ;
#8 = APPROVAL ( #206, 'UNSPECIFIED' ) ;
#9 = VERTEX_POINT ( 'NONE', #211 ) ;
#10 =( GEOMETRIC_REPRESENTATION_CONTEXT ( 3 ) GLOBAL_UNCERTAINTY_ASSIGNED_CONTEXT ( ( #13 ) ) GLOBAL_UNIT_ASSIGNED_CONTEXT ( ( #184, #91, #144 ) ) REPRESENTATION_CONTEXT ( 'NONE', 'WORKASPACE' ) );
#11 = APPROVAL_PERSON_ORGANIZATION ( #47, #8, #172 ) ;
#12 = ORIENTED_EDGE ( 'NONE', *, *, #17, .T. ) ;
#13 = UNCERTAINTY_MEASURE_WITH_UNIT (LENGTH_MEASURE( 1.000000000000000100E-005 ), #184, 'distance_accuracy_value', 'NONE');
#14 = APPROVAL_DATE_TIME ( #32, #120 ) ;
#15 = PERSON_AND_ORGANIZATION ( #196, #54 ) ;
#16 = CARTESIAN_POINT ( 'NONE',  ( 6.349999999999998800, -6.349999999999998800, -3.000000000000000000 ) ) ;
#17 = EDGE_CURVE ( 'NONE', #60, #171, #80, .T. ) ;
#18 = ORIENTED_EDGE ( 'NONE', *, *, #112, .T. ) ;
#19 = CARTESIAN_POINT ( 'NONE',  ( -6.350000000000000500, -6.350000000000000500, -3.000000000000000000 ) ) ;
#20 = CC_DESIGN_PERSON_AND_ORGANIZATION_ASSIGNMENT ( #15, #190, ( #95 ) ) ;
#21 = CARTESIAN_POINT ( 'NONE',  ( 6.349999999999998800, -6.349999999999998800, 3.000000000000000000 ) ) ;
#22 = PRODUCT ( 'Web Model 64397MX_43742', 'Web Model 64397MX_43742', '', ( #98 ) ) ;
#23 = DIRECTION ( 'NONE',  ( -1.000000000000000000, -1.365923996832131600E-016, 0.0000000000000000000 ) ) ;
#24 = LINE ( 'NONE', #185, #182 ) ;
#25 = AXIS2_PLACEMENT_3D ( 'NONE', #21, #234, #162 ) ;
#26 = ORIENTED_EDGE ( 'NONE', *, *, #50, .F. ) ;
#27 = LOCAL_TIME ( 9, 0, 6.000000000000000000, #160 ) ;
#28 = ORIENTED_EDGE ( 'NONE', *, *, #50, .T. ) ;
#29 = DATE_TIME_ROLE ( 'creation_date' ) ;
#30 = ADVANCED_FACE ( 'NONE', ( #186 ), #124, .F. ) ;
#31 = CC_DESIGN_PERSON_AND_ORGANIZATION_ASSIGNMENT ( #71, #96, ( #83 ) ) ;
#32 = DATE_AND_TIME ( #221, #227 ) ;
#33 = LINE ( 'NONE', #41, #68 ) ;
#34 = LINE ( 'NONE', #158, #49 ) ;
#35 = ORIENTED_EDGE ( 'NONE', *, *, #78, .T. ) ;
#36 = PRODUCT_RELATED_PRODUCT_CATEGORY ( 'detail', '', ( #22 ) ) ;
#37 = CARTESIAN_POINT ( 'NONE',  ( -6.350000000000000500, -6.350000000000000500, 3.000000000000000000 ) ) ;
#38 = DIRECTION ( 'NONE',  ( -0.0000000000000000000, -0.0000000000000000000, -1.000000000000000000 ) ) ;
#39 = DIRECTION ( 'NONE',  ( 0.0000000000000000000, 1.000000000000000000, 0.0000000000000000000 ) ) ;
#40 = CC_DESIGN_PERSON_AND_ORGANIZATION_ASSIGNMENT ( #66, #63, ( #95 ) ) ;
#41 = CARTESIAN_POINT ( 'NONE',  ( 6.349999999999998800, -6.349999999999998800, -3.000000000000000000 ) ) ;
#42 = ORIENTED_EDGE ( 'NONE', *, *, #64, .F. ) ;
#43 = DIRECTION ( 'NONE',  ( -0.0000000000000000000, -1.000000000000000000, -0.0000000000000000000 ) ) ;
#44 = APPROVAL_ROLE ( '' ) ;
#45 = VECTOR ( 'NONE', #109, 1000.000000000000000 ) ;
#46 = DATE_AND_TIME ( #141, #90 ) ;
#47 = PERSON_AND_ORGANIZATION ( #196, #54 ) ;
#48 = ORIENTED_EDGE ( 'NONE', *, *, #78, .F. ) ;
#49 = VECTOR ( 'NONE', #123, 1000.000000000000000 ) ;
#50 = EDGE_CURVE ( 'NONE', #115, #159, #130, .T. ) ;
#51 = COORDINATED_UNIVERSAL_TIME_OFFSET ( 5, 0, .BEHIND. ) ;
#52 = SECURITY_CLASSIFICATION ( '', '', #7 ) ;
#53 = DATE_AND_TIME ( #228, #100 ) ;
#54 = ORGANIZATION ( 'UNSPECIFIED', 'UNSPECIFIED', '' ) ;
#55 = DIRECTION ( 'NONE',  ( 0.0000000000000000000, -0.0000000000000000000, 1.000000000000000000 ) ) ;
#56 = DIRECTION ( 'NONE',  ( -1.000000000000000000, -1.365923996832131600E-016, 0.0000000000000000000 ) ) ;
#57 = DIRECTION ( 'NONE',  ( 1.365923996832131600E-016, -1.000000000000000000, 0.0000000000000000000 ) ) ;
#58 = CARTESIAN_POINT ( 'NONE',  ( 6.349999999999998800, -6.349999999999998800, 3.000000000000000000 ) ) ;
#59 = SHAPE_DEFINITION_REPRESENTATION ( #232, #166 ) ;
#60 = VERTEX_POINT ( 'NONE', #37 ) ;
#61 = PERSON_AND_ORGANIZATION_ROLE ( 'design_owner' ) ;
#62 = APPROVAL_STATUS ( 'not_yet_approved' ) ;
#63 = PERSON_AND_ORGANIZATION_ROLE ( 'creator' ) ;
#64 = EDGE_CURVE ( 'NONE', #208, #9, #93, .T. ) ;
#65 = ORIENTED_EDGE ( 'NONE', *, *, #75, .F. ) ;
#66 = PERSON_AND_ORGANIZATION ( #196, #54 ) ;
#67 = ORIENTED_EDGE ( 'NONE', *, *, #152, .T. ) ;
#68 = VECTOR ( 'NONE', #129, 1000.000000000000000 ) ;
#69 = CARTESIAN_POINT ( 'NONE',  ( 6.349999999999998800, -6.349999999999998800, 3.000000000000000000 ) ) ;
#70 = ORIENTED_EDGE ( 'NONE', *, *, #87, .F. ) ;
#71 = PERSON_AND_ORGANIZATION ( #196, #54 ) ;
#72 = DIRECTION ( 'NONE',  ( -1.365923996832131600E-016, 1.000000000000000000, 0.0000000000000000000 ) ) ;
#73 = APPROVAL ( #6, 'UNSPECIFIED' ) ;
#74 = CARTESIAN_POINT ( 'NONE',  ( 6.349999999999998800, -6.349999999999998800, -3.000000000000000000 ) ) ;
#75 = EDGE_CURVE ( 'NONE', #60, #115, #34, .T. ) ;
#76 = DIRECTION ( 'NONE',  ( 1.000000000000000000, 0.0000000000000000000, -0.0000000000000000000 ) ) ;
#77 = LINE ( 'NONE', #16, #135 ) ;
#78 = EDGE_CURVE ( 'NONE', #115, #86, #134, .T. ) ;
#79 = PLANE ( 'NONE',  #175 ) ;
#80 = LINE ( 'NONE', #122, #178 ) ;
#81 = APPROVAL_PERSON_ORGANIZATION ( #154, #120, #44 ) ;
#82 = EDGE_LOOP ( 'NONE', ( #223, #177, #48, #28 ) ) ;
#83 = PRODUCT_DEFINITION ( 'UNKNOWN', '', #95, #102 ) ;
#84 = FACE_OUTER_BOUND ( 'NONE', #82, .T. ) ;
#85 = ORIENTED_EDGE ( 'NONE', *, *, #112, .F. ) ;
#86 = VERTEX_POINT ( 'NONE', #163 ) ;
#87 = EDGE_CURVE ( 'NONE', #208, #60, #229, .T. ) ;
#88 = DIRECTION ( 'NONE',  ( -0.0000000000000000000, -0.0000000000000000000, -1.000000000000000000 ) ) ;
#89 = FACE_OUTER_BOUND ( 'NONE', #214, .T. ) ;
#90 = LOCAL_TIME ( 9, 0, 6.000000000000000000, #105 ) ;
#91 =( NAMED_UNIT ( * ) PLANE_ANGLE_UNIT ( ) SI_UNIT ( $, .RADIAN. ) );
#92 = PLANE ( 'NONE',  #148 ) ;
#93 = LINE ( 'NONE', #179, #139 ) ;
#94 = DIRECTION ( 'NONE',  ( 1.000000000000000000, 1.365923996832131600E-016, -0.0000000000000000000 ) ) ;
#95 = PRODUCT_DEFINITION_FORMATION_WITH_SPECIFIED_SOURCE ( 'ANY', '', #22, .NOT_KNOWN. ) ;
#96 = PERSON_AND_ORGANIZATION_ROLE ( 'creator' ) ;
#97 = FACE_OUTER_BOUND ( 'NONE', #114, .T. ) ;
#98 = MECHANICAL_CONTEXT ( 'NONE', #202, 'mechanical' ) ;
#99 = ADVANCED_FACE ( 'NONE', ( #128 ), #92, .T. ) ;
#100 = LOCAL_TIME ( 9, 0, 6.000000000000000000, #157 ) ;
#101 = VERTEX_POINT ( 'NONE', #140 ) ;
#102 = DESIGN_CONTEXT ( 'detailed design', #173, 'design' ) ;
#103 = EDGE_CURVE ( 'NONE', #9, #171, #237, .T. ) ;
#104 = ORIENTED_EDGE ( 'NONE', *, *, #87, .T. ) ;
#105 = COORDINATED_UNIVERSAL_TIME_OFFSET ( 5, 0, .BEHIND. ) ;
#106 = PLANE ( 'NONE',  #209 ) ;
#107 = CC_DESIGN_DATE_AND_TIME_ASSIGNMENT ( #46, #192, ( #52 ) ) ;
#108 = CARTESIAN_POINT ( 'NONE',  ( -6.350000000000000500, -6.350000000000000500, 3.000000000000000000 ) ) ;
#109 = DIRECTION ( 'NONE',  ( -0.0000000000000000000, -1.000000000000000000, -0.0000000000000000000 ) ) ;
#110 = FACE_OUTER_BOUND ( 'NONE', #216, .T. ) ;
#111 = ORIENTED_EDGE ( 'NONE', *, *, #103, .F. ) ;
#112 = EDGE_CURVE ( 'NONE', #171, #159, #77, .T. ) ;
#113 = APPLICATION_PROTOCOL_DEFINITION ( 'international standard', 'config_control_design', 1994, #202 ) ;
#114 = EDGE_LOOP ( 'NONE', ( #191, #168, #70, #205 ) ) ;
#115 = VERTEX_POINT ( 'NONE', #58 ) ;
#116 = EDGE_CURVE ( 'NONE', #159, #101, #33, .T. ) ;
#117 = ADVANCED_FACE ( 'NONE', ( #89 ), #187, .F. ) ;
#118 = ORIENTED_EDGE ( 'NONE', *, *, #116, .F. ) ;
#119 = CALENDAR_DATE ( 2017, 30, 10 ) ;
#120 = APPROVAL ( #62, 'UNSPECIFIED' ) ;
#121 = VECTOR ( 'NONE', #39, 1000.000000000000000 ) ;
#122 = CARTESIAN_POINT ( 'NONE',  ( -6.350000000000000500, -6.350000000000000500, 3.000000000000000000 ) ) ;
#123 = DIRECTION ( 'NONE',  ( 1.000000000000000000, 1.365923996832131600E-016, -0.0000000000000000000 ) ) ;
#124 = PLANE ( 'NONE',  #231 ) ;
#125 = EDGE_LOOP ( 'NONE', ( #111, #151, #118, #85 ) ) ;
#126 = DIRECTION ( 'NONE',  ( 1.000000000000000000, 1.365923996832131600E-016, 0.0000000000000000000 ) ) ;
#127 = CARTESIAN_POINT ( 'NONE',  ( 6.349999999999998800, 6.350000000000000500, -3.000000000000000000 ) ) ;
#128 = FACE_OUTER_BOUND ( 'NONE', #174, .T. ) ;
#129 = DIRECTION ( 'NONE',  ( 0.0000000000000000000, 1.000000000000000000, 0.0000000000000000000 ) ) ;
#130 = LINE ( 'NONE', #69, #176 ) ;
#131 = APPROVAL_ROLE ( '' ) ;
#132 = PERSON_AND_ORGANIZATION_ROLE ( 'classification_officer' ) ;
#133 = CC_DESIGN_APPROVAL ( #120, ( #52 ) ) ;
#134 = LINE ( 'NONE', #142, #121 ) ;
#135 = VECTOR ( 'NONE', #94, 1000.000000000000000 ) ;
#136 = EDGE_CURVE ( 'NONE', #101, #9, #164, .T. ) ;
#137 = PERSON_AND_ORGANIZATION ( #196, #54 ) ;
#138 = DATE_AND_TIME ( #215, #27 ) ;
#139 = VECTOR ( 'NONE', #38, 1000.000000000000000 ) ;
#140 = CARTESIAN_POINT ( 'NONE',  ( 6.349999999999998800, 6.350000000000000500, -3.000000000000000000 ) ) ;
#141 = CALENDAR_DATE ( 2017, 30, 10 ) ;
#142 = CARTESIAN_POINT ( 'NONE',  ( 6.349999999999998800, -6.349999999999998800, 3.000000000000000000 ) ) ;
#143 = CARTESIAN_POINT ( 'NONE',  ( 0.0000000000000000000, 0.0000000000000000000, 0.0000000000000000000 ) ) ;
#144 =( NAMED_UNIT ( * ) SI_UNIT ( $, .STERADIAN. ) SOLID_ANGLE_UNIT ( ) );
#145 = CC_DESIGN_SECURITY_CLASSIFICATION ( #52, ( #95 ) ) ;
#146 = DIRECTION ( 'NONE',  ( -1.000000000000000000, -1.365923996832131600E-016, 0.0000000000000000000 ) ) ;
#147 = CARTESIAN_POINT ( 'NONE',  ( 6.349999999999998800, 6.350000000000000500, 3.000000000000000000 ) ) ;
#148 = AXIS2_PLACEMENT_3D ( 'NONE', #236, #55, #76 ) ;
#149 = APPROVAL_PERSON_ORGANIZATION ( #137, #73, #131 ) ;
#150 = CC_DESIGN_PERSON_AND_ORGANIZATION_ASSIGNMENT ( #194, #61, ( #22 ) ) ;
#151 = ORIENTED_EDGE ( 'NONE', *, *, #136, .F. ) ;
#152 = EDGE_CURVE ( 'NONE', #86, #208, #24, .T. ) ;
#153 = CLOSED_SHELL ( 'NONE', ( #193, #189, #224, #117, #99, #30 ) ) ;
#154 = PERSON_AND_ORGANIZATION ( #196, #54 ) ;
#155 = VECTOR ( 'NONE', #161, 1000.000000000000000 ) ;
#156 = AXIS2_PLACEMENT_3D ( 'NONE', #1, #57, #126 ) ;
#157 = COORDINATED_UNIVERSAL_TIME_OFFSET ( 5, 0, .BEHIND. ) ;
#158 = CARTESIAN_POINT ( 'NONE',  ( 6.349999999999998800, -6.349999999999998800, 3.000000000000000000 ) ) ;
#159 = VERTEX_POINT ( 'NONE', #74 ) ;
#160 = COORDINATED_UNIVERSAL_TIME_OFFSET ( 5, 0, .BEHIND. ) ;
#161 = DIRECTION ( 'NONE',  ( -0.0000000000000000000, -0.0000000000000000000, -1.000000000000000000 ) ) ;
#162 = DIRECTION ( 'NONE',  ( 0.0000000000000000000, 0.0000000000000000000, 1.000000000000000000 ) ) ;
#163 = CARTESIAN_POINT ( 'NONE',  ( 6.349999999999998800, 6.350000000000000500, 3.000000000000000000 ) ) ;
#164 = LINE ( 'NONE', #127, #226 ) ;
#165 = CC_DESIGN_DATE_AND_TIME_ASSIGNMENT ( #138, #29, ( #83 ) ) ;
#166 = ADVANCED_BREP_SHAPE_REPRESENTATION ( 'Web Model 64397MX_43742', ( #188, #213 ), #10 ) ;
#167 = EDGE_CURVE ( 'NONE', #86, #101, #199, .T. ) ;
#168 = ORIENTED_EDGE ( 'NONE', *, *, #17, .F. ) ;
#169 = APPLICATION_PROTOCOL_DEFINITION ( 'international standard', 'config_control_design', 1994, #173 ) ;
#170 = APPROVAL_DATE_TIME ( #210, #73 ) ;
#171 = VERTEX_POINT ( 'NONE', #218 ) ;
#172 = APPROVAL_ROLE ( '' ) ;
#173 = APPLICATION_CONTEXT ( 'configuration controlled 3d designs of mechanical parts and assemblies' ) ;
#174 = EDGE_LOOP ( 'NONE', ( #104, #5, #35, #67 ) ) ;
#175 = AXIS2_PLACEMENT_3D ( 'NONE', #203, #72, #56 ) ;
#176 = VECTOR ( 'NONE', #88, 1000.000000000000000 ) ;
#177 = ORIENTED_EDGE ( 'NONE', *, *, #167, .F. ) ;
#178 = VECTOR ( 'NONE', #197, 1000.000000000000000 ) ;
#179 = CARTESIAN_POINT ( 'NONE',  ( -6.350000000000000500, 6.349999999999998800, 3.000000000000000000 ) ) ;
#180 = CC_DESIGN_PERSON_AND_ORGANIZATION_ASSIGNMENT ( #200, #132, ( #52 ) ) ;
#181 = DIRECTION ( 'NONE',  ( 1.000000000000000000, 0.0000000000000000000, -0.0000000000000000000 ) ) ;
#182 = VECTOR ( 'NONE', #146, 1000.000000000000000 ) ;
#183 = DIRECTION ( 'NONE',  ( 0.0000000000000000000, -0.0000000000000000000, 1.000000000000000000 ) ) ;
#184 =( LENGTH_UNIT ( ) NAMED_UNIT ( * ) SI_UNIT ( .MILLI., .METRE. ) );
#185 = CARTESIAN_POINT ( 'NONE',  ( 6.349999999999998800, 6.350000000000000500, 3.000000000000000000 ) ) ;
#186 = FACE_OUTER_BOUND ( 'NONE', #125, .T. ) ;
#187 = PLANE ( 'NONE',  #156 ) ;
#188 = MANIFOLD_SOLID_BREP ( 'Boss-Extrude1', #153 ) ;
#189 = ADVANCED_FACE ( 'NONE', ( #110 ), #79, .F. ) ;
#190 = PERSON_AND_ORGANIZATION_ROLE ( 'design_supplier' ) ;
#191 = ORIENTED_EDGE ( 'NONE', *, *, #103, .T. ) ;
#192 = DATE_TIME_ROLE ( 'classification_date' ) ;
#193 = ADVANCED_FACE ( 'NONE', ( #97 ), #106, .F. ) ;
#194 = PERSON_AND_ORGANIZATION ( #196, #54 ) ;
#195 = LOCAL_TIME ( 9, 0, 6.000000000000000000, #4 ) ;
#196 = PERSON ( 'UNSPECIFIED', 'UNSPECIFIED', 'UNSPECIFIED', ('UNSPECIFIED'), ('UNSPECIFIED'), ('UNSPECIFIED') ) ;
#197 = DIRECTION ( 'NONE',  ( -0.0000000000000000000, -0.0000000000000000000, -1.000000000000000000 ) ) ;
#198 = CARTESIAN_POINT ( 'NONE',  ( -6.350000000000000500, -6.350000000000000500, 3.000000000000000000 ) ) ;
#199 = LINE ( 'NONE', #147, #155 ) ;
#200 = PERSON_AND_ORGANIZATION ( #196, #54 ) ;
#201 = DIRECTION ( 'NONE',  ( 0.0000000000000000000, 0.0000000000000000000, 1.000000000000000000 ) ) ;
#202 = APPLICATION_CONTEXT ( 'configuration controlled 3d designs of mechanical parts and assemblies' ) ;
#203 = CARTESIAN_POINT ( 'NONE',  ( 6.349999999999998800, -6.349999999999998800, 3.000000000000000000 ) ) ;
#204 = CARTESIAN_POINT ( 'NONE',  ( -6.350000000000000500, 6.349999999999998800, 3.000000000000000000 ) ) ;
#205 = ORIENTED_EDGE ( 'NONE', *, *, #64, .T. ) ;
#206 = APPROVAL_STATUS ( 'not_yet_approved' ) ;
#207 = DIRECTION ( 'NONE',  ( 1.000000000000000000, 0.0000000000000000000, 0.0000000000000000000 ) ) ;
#208 = VERTEX_POINT ( 'NONE', #204 ) ;
#209 = AXIS2_PLACEMENT_3D ( 'NONE', #108, #220, #3 ) ;
#210 = DATE_AND_TIME ( #119, #195 ) ;
#211 = CARTESIAN_POINT ( 'NONE',  ( -6.350000000000000500, 6.349999999999998800, -3.000000000000000000 ) ) ;
#212 = ORIENTED_EDGE ( 'NONE', *, *, #136, .T. ) ;
#213 = AXIS2_PLACEMENT_3D ( 'NONE', #143, #201, #207 ) ;
#214 = EDGE_LOOP ( 'NONE', ( #212, #42, #225, #233 ) ) ;
#215 = CALENDAR_DATE ( 2017, 30, 10 ) ;
#216 = EDGE_LOOP ( 'NONE', ( #18, #26, #65, #12 ) ) ;
#217 = CC_DESIGN_APPROVAL ( #73, ( #83 ) ) ;
#218 = CARTESIAN_POINT ( 'NONE',  ( -6.350000000000000500, -6.350000000000000500, -3.000000000000000000 ) ) ;
#219 = VECTOR ( 'NONE', #43, 1000.000000000000000 ) ;
#220 = DIRECTION ( 'NONE',  ( 1.000000000000000000, 0.0000000000000000000, 0.0000000000000000000 ) ) ;
#221 = CALENDAR_DATE ( 2017, 30, 10 ) ;
#222 = CC_DESIGN_APPROVAL ( #8, ( #95 ) ) ;
#223 = ORIENTED_EDGE ( 'NONE', *, *, #116, .T. ) ;
#224 = ADVANCED_FACE ( 'NONE', ( #84 ), #235, .F. ) ;
#225 = ORIENTED_EDGE ( 'NONE', *, *, #152, .F. ) ;
#226 = VECTOR ( 'NONE', #23, 1000.000000000000000 ) ;
#227 = LOCAL_TIME ( 9, 0, 6.000000000000000000, #51 ) ;
#228 = CALENDAR_DATE ( 2017, 30, 10 ) ;
#229 = LINE ( 'NONE', #198, #45 ) ;
#230 = CARTESIAN_POINT ( 'NONE',  ( 0.0000000000000000000, 0.0000000000000000000, -3.000000000000000000 ) ) ;
#231 = AXIS2_PLACEMENT_3D ( 'NONE', #230, #183, #181 ) ;
#232 = PRODUCT_DEFINITION_SHAPE ( 'NONE', 'NONE',  #83 ) ;
#233 = ORIENTED_EDGE ( 'NONE', *, *, #167, .T. ) ;
#234 = DIRECTION ( 'NONE',  ( -1.000000000000000000, 0.0000000000000000000, 0.0000000000000000000 ) ) ;
#235 = PLANE ( 'NONE',  #25 ) ;
#236 = CARTESIAN_POINT ( 'NONE',  ( 0.0000000000000000000, 0.0000000000000000000, 3.000000000000000000 ) ) ;
#237 = LINE ( 'NONE', #19, #219 ) ;
ENDSEC;
END-ISO-10303-21;
