ISO-10303-21;
HEADER;
FILE_DESCRIPTION (( 'STEP AP214' ),
    '1' );
FILE_NAME ('3246-E0W.STEP',
    '2009-12-21T16:55:33',
    ( ' ' ),
    ( ' ' ),
    'SwSTEP 2.0',
    'SolidWorks 2009',
    '' );
FILE_SCHEMA (( 'AUTOMOTIVE_DESIGN' ));
ENDSEC;

DATA;
#1 = ORIENTED_EDGE ( 'NONE', *, *, #33, .T. ) ;
#2 = EDGE_LOOP ( 'NONE', ( #1, #45, #43, #58, #42 ) ) ;
#3 = ADVANCED_FACE ( 'NONE', ( #44 ), #90, .T. ) ;
#4 = MANIFOLD_SOLID_BREP ( 'NONE', #11 ) ;
#5 = VERTEX_POINT ( 'NONE', #81 ) ;
#6 = EDGE_CURVE ( 'NONE', #34, #40, #70, .T. ) ;
#7 = ADVANCED_FACE ( 'NONE', ( #87 ), #110, .T. ) ;
#8 = ORIENTED_EDGE ( 'NONE', *, *, #48, .T. ) ;
#9 = EDGE_LOOP ( 'NONE', ( #8, #36, #18, #21 ) ) ;
#10 = EDGE_CURVE ( 'NONE', #5, #40, #152, .T. ) ;
#11 = CLOSED_SHELL ( 'NONE', ( #3, #7, #28, #32, #30 ) ) ;
#12 = ORIENTED_EDGE ( 'NONE', *, *, #23, .F. ) ;
#13 = ORIENTED_EDGE ( 'NONE', *, *, #33, .F. ) ;
#14 = EDGE_LOOP ( 'NONE', ( #24, #38, #39, #25, #31 ) ) ;
#15 = EDGE_LOOP ( 'NONE', ( #16, #17, #29, #27 ) ) ;
#16 = ORIENTED_EDGE ( 'NONE', *, *, #19, .F. ) ;
#17 = ORIENTED_EDGE ( 'NONE', *, *, #10, .T. ) ;
#18 = ORIENTED_EDGE ( 'NONE', *, *, #19, .T. ) ;
#19 = EDGE_CURVE ( 'NONE', #5, #20, #156, .T. ) ;
#20 = VERTEX_POINT ( 'NONE', #125 ) ;
#21 = ORIENTED_EDGE ( 'NONE', *, *, #22, .F. ) ;
#22 = EDGE_CURVE ( 'NONE', #49, #20, #123, .T. ) ;
#23 = EDGE_CURVE ( 'NONE', #35, #34, #129, .T. ) ;
#24 = ORIENTED_EDGE ( 'NONE', *, *, #57, .F. ) ;
#25 = ORIENTED_EDGE ( 'NONE', *, *, #10, .F. ) ;
#26 = EDGE_LOOP ( 'NONE', ( #13, #12 ) ) ;
#27 = ORIENTED_EDGE ( 'NONE', *, *, #22, .T. ) ;
#28 = ADVANCED_FACE ( 'NONE', ( #130 ), #161, .T. ) ;
#29 = ORIENTED_EDGE ( 'NONE', *, *, #41, .T. ) ;
#30 = ADVANCED_FACE ( 'NONE', ( #159 ), #169, .F. ) ;
#31 = ORIENTED_EDGE ( 'NONE', *, *, #37, .F. ) ;
#32 = ADVANCED_FACE ( 'NONE', ( #179 ), #220, .T. ) ;
#33 = EDGE_CURVE ( 'NONE', #34, #35, #251, .T. ) ;
#34 = VERTEX_POINT ( 'NONE', #244 ) ;
#35 = VERTEX_POINT ( 'NONE', #243 ) ;
#36 = ORIENTED_EDGE ( 'NONE', *, *, #37, .T. ) ;
#37 = EDGE_CURVE ( 'NONE', #46, #5, #242, .T. ) ;
#38 = ORIENTED_EDGE ( 'NONE', *, *, #23, .T. ) ;
#39 = ORIENTED_EDGE ( 'NONE', *, *, #6, .T. ) ;
#40 = VERTEX_POINT ( 'NONE', #237 ) ;
#41 = EDGE_CURVE ( 'NONE', #40, #49, #236, .T. ) ;
#42 = ORIENTED_EDGE ( 'NONE', *, *, #6, .F. ) ;
#43 = ORIENTED_EDGE ( 'NONE', *, *, #48, .F. ) ;
#44 = FACE_OUTER_BOUND ( 'NONE', #2, .T. ) ;
#45 = ORIENTED_EDGE ( 'NONE', *, *, #57, .T. ) ;
#46 = VERTEX_POINT ( 'NONE', #231 ) ;
#47 = COLOUR_RGB ( '',0.9568627450980391500, 0.9490196078431372100, 0.9607843137254902200 ) ;
#48 = EDGE_CURVE ( 'NONE', #49, #46, #217, .T. ) ;
#49 = VERTEX_POINT ( 'NONE', #212 ) ;
#50 = STYLED_ITEM ( 'NONE', ( #51 ), #3 ) ;
#51 = PRESENTATION_STYLE_ASSIGNMENT (( #52 ) ) ;
#52 = SURFACE_STYLE_USAGE ( .BOTH. , #53 ) ;
#53 = SURFACE_SIDE_STYLE ('',( #54 ) ) ;
#54 = SURFACE_STYLE_FILL_AREA ( #55 ) ;
#55 = FILL_AREA_STYLE ('',( #56 ) ) ;
#56 = FILL_AREA_STYLE_COLOUR ( '', #47 ) ;
#57 = EDGE_CURVE ( 'NONE', #35, #46, #211, .T. ) ;
#58 = ORIENTED_EDGE ( 'NONE', *, *, #41, .F. ) ;
#59 = MECHANICAL_DESIGN_GEOMETRIC_PRESENTATION_REPRESENTATION (  '', ( #50 ), #79 ) ;
#60 = PRESENTATION_LAYER_ASSIGNMENT (  '', '', ( #50 ) ) ;
#61 =( LENGTH_UNIT ( ) NAMED_UNIT ( * ) SI_UNIT ( .MILLI., .METRE. ) );
#62 = UNCERTAINTY_MEASURE_WITH_UNIT (LENGTH_MEASURE( 1.000000000000000100E-005 ), #61, 'distance_accuracy_value', 'NONE');
#63 =( NAMED_UNIT ( * ) SI_UNIT ( $, .STERADIAN. ) SOLID_ANGLE_UNIT ( ) );
#64 =( NAMED_UNIT ( * ) PLANE_ANGLE_UNIT ( ) SI_UNIT ( $, .RADIAN. ) );
#65 = SURFACE_SIDE_STYLE ('',( #71 ) ) ;
#66 =( LENGTH_UNIT ( ) NAMED_UNIT ( * ) SI_UNIT ( .MILLI., .METRE. ) );
#67 = COLOUR_RGB ( '',0.7960784313725489700, 0.8235294117647058400, 0.9372549019607843100 ) ;
#68 = FILL_AREA_STYLE ('',( #78 ) ) ;
#69 = DIRECTION ( 'NONE',  ( 1.000000000000000000, 0.0000000000000000000, 0.0000000000000000000 ) ) ;
#70 = LINE ( 'NONE', #80, #86 ) ;
#71 = SURFACE_STYLE_FILL_AREA ( #68 ) ;
#72 =( NAMED_UNIT ( * ) PLANE_ANGLE_UNIT ( ) SI_UNIT ( $, .RADIAN. ) );
#73 = UNCERTAINTY_MEASURE_WITH_UNIT (LENGTH_MEASURE( 1.000000000000000100E-005 ), #66, 'distance_accuracy_value', 'NONE');
#74 = PRESENTATION_STYLE_ASSIGNMENT (( #83 ) ) ;
#75 =( NAMED_UNIT ( * ) SI_UNIT ( $, .STERADIAN. ) SOLID_ANGLE_UNIT ( ) );
#76 = MECHANICAL_DESIGN_GEOMETRIC_PRESENTATION_REPRESENTATION (  '', ( #88 ), #91 ) ;
#77 = CARTESIAN_POINT ( 'NONE',  ( 0.0000000000000000000, 0.0000000000000000000, 4.308132045400366600 ) ) ;
#78 = FILL_AREA_STYLE_COLOUR ( '', #67 ) ;
#79 =( GEOMETRIC_REPRESENTATION_CONTEXT ( 3 ) GLOBAL_UNCERTAINTY_ASSIGNED_CONTEXT ( ( #62 ) ) GLOBAL_UNIT_ASSIGNED_CONTEXT ( ( #61, #64, #63 ) ) REPRESENTATION_CONTEXT ( 'NONE', 'WORKASPACE' ) );
#80 = CARTESIAN_POINT ( 'NONE',  ( 12.69999999999999900, 0.0000000000000000000, 4.308132045400366600 ) ) ;
#81 = CARTESIAN_POINT ( 'NONE',  ( -1.555250069354418900E-015, -12.69999999999999900, -2.331562638740900100 ) ) ;
#82 = PRESENTATION_LAYER_ASSIGNMENT (  '', '', ( #88 ) ) ;
#83 = SURFACE_STYLE_USAGE ( .BOTH. , #65 ) ;
#84 = FILL_AREA_STYLE_COLOUR ( '', #99 ) ;
#85 = DIRECTION ( 'NONE',  ( -0.0000000000000000000, -0.0000000000000000000, 1.000000000000000000 ) ) ;
#86 = VECTOR ( 'NONE', #85, 1000.000000000000000 ) ;
#87 = FACE_OUTER_BOUND ( 'NONE', #9, .T. ) ;
#88 = STYLED_ITEM ( 'NONE', ( #74 ), #4 ) ;
#89 = DIRECTION ( 'NONE',  ( -0.0000000000000000000, -0.0000000000000000000, 1.000000000000000000 ) ) ;
#90 = CYLINDRICAL_SURFACE ( 'NONE', #92, 12.69999999999999900 ) ;
#91 =( GEOMETRIC_REPRESENTATION_CONTEXT ( 3 ) GLOBAL_UNCERTAINTY_ASSIGNED_CONTEXT ( ( #73 ) ) GLOBAL_UNIT_ASSIGNED_CONTEXT ( ( #66, #72, #75 ) ) REPRESENTATION_CONTEXT ( 'NONE', 'WORKASPACE' ) );
#92 = AXIS2_PLACEMENT_3D ( 'NONE', #77, #89, #69 ) ;
#93 =( NAMED_UNIT ( * ) PLANE_ANGLE_UNIT ( ) SI_UNIT ( $, .RADIAN. ) );
#94 = PRESENTATION_STYLE_ASSIGNMENT (( #95 ) ) ;
#95 = SURFACE_STYLE_USAGE ( .BOTH. , #96 ) ;
#96 = SURFACE_SIDE_STYLE ('',( #97 ) ) ;
#97 = SURFACE_STYLE_FILL_AREA ( #98 ) ;
#98 = FILL_AREA_STYLE ('',( #84 ) ) ;
#99 = COLOUR_RGB ( '',0.9568627450980391500, 0.9490196078431372100, 0.9607843137254902200 ) ;
#100 =( LENGTH_UNIT ( ) NAMED_UNIT ( * ) SI_UNIT ( .MILLI., .METRE. ) );
#101 =( NAMED_UNIT ( * ) PLANE_ANGLE_UNIT ( ) SI_UNIT ( $, .RADIAN. ) );
#102 =( NAMED_UNIT ( * ) SI_UNIT ( $, .STERADIAN. ) SOLID_ANGLE_UNIT ( ) );
#103 = STYLED_ITEM ( 'NONE', ( #94 ), #7 ) ;
#104 = PRESENTATION_LAYER_ASSIGNMENT (  '', '', ( #103 ) ) ;
#105 = MECHANICAL_DESIGN_GEOMETRIC_PRESENTATION_REPRESENTATION (  '', ( #103 ), #107 ) ;
#106 = UNCERTAINTY_MEASURE_WITH_UNIT (LENGTH_MEASURE( 1.000000000000000100E-005 ), #100, 'distance_accuracy_value', 'NONE');
#107 =( GEOMETRIC_REPRESENTATION_CONTEXT ( 3 ) GLOBAL_UNCERTAINTY_ASSIGNED_CONTEXT ( ( #106 ) ) GLOBAL_UNIT_ASSIGNED_CONTEXT ( ( #100, #101, #102 ) ) REPRESENTATION_CONTEXT ( 'NONE', 'WORKASPACE' ) );
#108 = DIRECTION ( 'NONE',  ( -1.000000000000000000, 0.0000000000000000000, 0.0000000000000000000 ) ) ;
#109 = DIRECTION ( 'NONE',  ( 0.0000000000000000000, 1.000000000000000000, 0.0000000000000000000 ) ) ;
#110 = SPHERICAL_SURFACE ( 'NONE', #139, 15.44999999999999900 ) ;
#111 = MECHANICAL_DESIGN_GEOMETRIC_PRESENTATION_REPRESENTATION (  '', ( #113 ), #162 ) ;
#112 = PRESENTATION_LAYER_ASSIGNMENT (  '', '', ( #113 ) ) ;
#113 = STYLED_ITEM ( 'NONE', ( #114 ), #28 ) ;
#114 = PRESENTATION_STYLE_ASSIGNMENT (( #115 ) ) ;
#115 = SURFACE_STYLE_USAGE ( .BOTH. , #116 ) ;
#116 = SURFACE_SIDE_STYLE ('',( #117 ) ) ;
#117 = SURFACE_STYLE_FILL_AREA ( #118 ) ;
#118 = FILL_AREA_STYLE ('',( #119 ) ) ;
#119 = FILL_AREA_STYLE_COLOUR ( '', #120 ) ;
#120 = COLOUR_RGB ( '',0.9568627450980391500, 0.9490196078431372100, 0.9607843137254902200 ) ;
#121 = DIRECTION ( 'NONE',  ( 1.000000000000000000, 0.0000000000000000000, 0.0000000000000000000 ) ) ;
#122 = DIRECTION ( 'NONE',  ( -0.0000000000000000000, -0.0000000000000000000, 1.000000000000000000 ) ) ;
#123 = CIRCLE ( 'NONE', #134, 15.45000000000000100 ) ;
#124 = CARTESIAN_POINT ( 'NONE',  ( 0.0000000000000000000, 0.0000000000000000000, -4.320000000000001200 ) ) ;
#125 = CARTESIAN_POINT ( 'NONE',  ( 0.0000000000000000000, 9.460084083277863100E-016, 4.319999999999999400 ) ) ;
#126 = DIRECTION ( 'NONE',  ( -1.224606353822377300E-016, -1.000000000000000000, 0.0000000000000000000 ) ) ;
#127 = CARTESIAN_POINT ( 'NONE',  ( 0.0000000000000000000, 0.0000000000000000000, -11.12999999999999900 ) ) ;
#128 = AXIS2_PLACEMENT_3D ( 'NONE', #124, #122, #121 ) ;
#129 = CIRCLE ( 'NONE', #128, 12.69999999999999900 ) ;
#130 = FACE_OUTER_BOUND ( 'NONE', #15, .T. ) ;
#131 = DIRECTION ( 'NONE',  ( 0.0000000000000000000, 0.0000000000000000000, -1.000000000000000000 ) ) ;
#132 = DIRECTION ( 'NONE',  ( 1.000000000000000000, 0.0000000000000000000, 0.0000000000000000000 ) ) ;
#133 = CARTESIAN_POINT ( 'NONE',  ( 0.0000000000000000000, 0.0000000000000000000, -11.12999999999999900 ) ) ;
#134 = AXIS2_PLACEMENT_3D ( 'NONE', #133, #132, #131 ) ;
#135 = DIRECTION ( 'NONE',  ( 1.000000000000000000, 0.0000000000000000000, 0.0000000000000000000 ) ) ;
#136 = DIRECTION ( 'NONE',  ( -0.0000000000000000000, -0.0000000000000000000, 1.000000000000000000 ) ) ;
#137 = CARTESIAN_POINT ( 'NONE',  ( 0.0000000000000000000, 0.0000000000000000000, -2.331562638740901000 ) ) ;
#138 = AXIS2_PLACEMENT_3D ( 'NONE', #137, #136, #135 ) ;
#139 = AXIS2_PLACEMENT_3D ( 'NONE', #127, #108, #109 ) ;
#140 =( LENGTH_UNIT ( ) NAMED_UNIT ( * ) SI_UNIT ( .MILLI., .METRE. ) );
#141 = MECHANICAL_DESIGN_GEOMETRIC_PRESENTATION_REPRESENTATION (  '', ( #143 ), #167 ) ;
#142 = PRESENTATION_LAYER_ASSIGNMENT (  '', '', ( #143 ) ) ;
#143 = STYLED_ITEM ( 'NONE', ( #144 ), #30 ) ;
#144 = PRESENTATION_STYLE_ASSIGNMENT (( #145 ) ) ;
#145 = SURFACE_STYLE_USAGE ( .BOTH. , #146 ) ;
#146 = SURFACE_SIDE_STYLE ('',( #147 ) ) ;
#147 = SURFACE_STYLE_FILL_AREA ( #148 ) ;
#148 = FILL_AREA_STYLE ('',( #160 ) ) ;
#149 = COLOUR_RGB ( '',0.9568627450980391500, 0.9490196078431372100, 0.9607843137254902200 ) ;
#150 = DIRECTION ( 'NONE',  ( 0.0000000000000000000, 1.000000000000000000, 0.0000000000000000000 ) ) ;
#151 = DIRECTION ( 'NONE',  ( -1.000000000000000000, 0.0000000000000000000, 0.0000000000000000000 ) ) ;
#152 = CIRCLE ( 'NONE', #138, 12.69999999999999900 ) ;
#153 = DIRECTION ( 'NONE',  ( -1.000000000000000000, 1.224606353822377300E-016, 0.0000000000000000000 ) ) ;
#154 = CARTESIAN_POINT ( 'NONE',  ( 0.0000000000000000000, 0.0000000000000000000, -11.12999999999999900 ) ) ;
#155 = AXIS2_PLACEMENT_3D ( 'NONE', #154, #153, #126 ) ;
#156 = CIRCLE ( 'NONE', #155, 15.44999999999999900 ) ;
#157 = CARTESIAN_POINT ( 'NONE',  ( 0.0000000000000000000, 0.0000000000000000000, -11.12999999999999900 ) ) ;
#158 = AXIS2_PLACEMENT_3D ( 'NONE', #157, #151, #150 ) ;
#159 = FACE_OUTER_BOUND ( 'NONE', #26, .T. ) ;
#160 = FILL_AREA_STYLE_COLOUR ( '', #149 ) ;
#161 = SPHERICAL_SURFACE ( 'NONE', #158, 15.44999999999999900 ) ;
#162 =( GEOMETRIC_REPRESENTATION_CONTEXT ( 3 ) GLOBAL_UNCERTAINTY_ASSIGNED_CONTEXT ( ( #163 ) ) GLOBAL_UNIT_ASSIGNED_CONTEXT ( ( #166, #165, #164 ) ) REPRESENTATION_CONTEXT ( 'NONE', 'WORKASPACE' ) );
#163 = UNCERTAINTY_MEASURE_WITH_UNIT (LENGTH_MEASURE( 1.000000000000000100E-005 ), #166, 'distance_accuracy_value', 'NONE');
#164 =( NAMED_UNIT ( * ) SI_UNIT ( $, .STERADIAN. ) SOLID_ANGLE_UNIT ( ) );
#165 =( NAMED_UNIT ( * ) PLANE_ANGLE_UNIT ( ) SI_UNIT ( $, .RADIAN. ) );
#166 =( LENGTH_UNIT ( ) NAMED_UNIT ( * ) SI_UNIT ( .MILLI., .METRE. ) );
#167 =( GEOMETRIC_REPRESENTATION_CONTEXT ( 3 ) GLOBAL_UNCERTAINTY_ASSIGNED_CONTEXT ( ( #252 ) ) GLOBAL_UNIT_ASSIGNED_CONTEXT ( ( #140, #93, #168 ) ) REPRESENTATION_CONTEXT ( 'NONE', 'WORKASPACE' ) );
#168 =( NAMED_UNIT ( * ) SI_UNIT ( $, .STERADIAN. ) SOLID_ANGLE_UNIT ( ) );
#169 = PLANE ( 'NONE',  #177 ) ;
#170 = SURFACE_SIDE_STYLE ('',( #171 ) ) ;
#171 = SURFACE_STYLE_FILL_AREA ( #172 ) ;
#172 = FILL_AREA_STYLE ('',( #173 ) ) ;
#173 = FILL_AREA_STYLE_COLOUR ( '', #178 ) ;
#174 = DIRECTION ( 'NONE',  ( 1.000000000000000000, 0.0000000000000000000, 0.0000000000000000000 ) ) ;
#175 = DIRECTION ( 'NONE',  ( 0.0000000000000000000, -0.0000000000000000000, 1.000000000000000000 ) ) ;
#176 = CARTESIAN_POINT ( 'NONE',  ( 0.0000000000000000000, 1.587142251694969800E-015, -4.320000000000000300 ) ) ;
#177 = AXIS2_PLACEMENT_3D ( 'NONE', #176, #175, #174 ) ;
#178 = COLOUR_RGB ( '',0.9568627450980391500, 0.9490196078431372100, 0.9607843137254902200 ) ;
#179 = FACE_OUTER_BOUND ( 'NONE', #14, .T. ) ;
#180 = PRODUCT_RELATED_PRODUCT_CATEGORY ( 'part', '', ( #186 ) ) ;
#181 = PRODUCT_DEFINITION_FORMATION_WITH_SPECIFIED_SOURCE ( 'ANY', '', #186, .NOT_KNOWN. ) ;
#182 = PRODUCT_DEFINITION ( 'UNKNOWN', '', #181, #183 ) ;
#183 = PRODUCT_DEFINITION_CONTEXT ( 'detailed design', #185, 'design' ) ;
#184 = APPLICATION_PROTOCOL_DEFINITION ( 'draft international standard', 'automotive_design', 1998, #185 ) ;
#185 = APPLICATION_CONTEXT ( 'automotive_design' ) ;
#186 = PRODUCT ( '3246-E0W', '3246-E0W', '', ( #187 ) ) ;
#187 = PRODUCT_CONTEXT ( 'NONE', #199, 'mechanical' ) ;
#188 = APPLICATION_PROTOCOL_DEFINITION ( 'draft international standard', 'automotive_design', 1998, #199 ) ;
#189 = MECHANICAL_DESIGN_GEOMETRIC_PRESENTATION_REPRESENTATION (  '', ( #191 ), #256 ) ;
#190 = PRESENTATION_LAYER_ASSIGNMENT (  '', '', ( #191 ) ) ;
#191 = STYLED_ITEM ( 'NONE', ( #192 ), #201 ) ;
#192 = PRESENTATION_STYLE_ASSIGNMENT (( #193 ) ) ;
#193 = SURFACE_STYLE_USAGE ( .BOTH. , #194 ) ;
#194 = SURFACE_SIDE_STYLE ('',( #195 ) ) ;
#195 = SURFACE_STYLE_FILL_AREA ( #196 ) ;
#196 = FILL_AREA_STYLE ('',( #197 ) ) ;
#197 = FILL_AREA_STYLE_COLOUR ( '', #198 ) ;
#198 = COLOUR_RGB ( '',0.7960784313725489700, 0.8235294117647058400, 0.9372549019607843100 ) ;
#199 = APPLICATION_CONTEXT ( 'automotive_design' ) ;
#200 = SHAPE_DEFINITION_REPRESENTATION ( #261, #201 ) ;
#201 = ADVANCED_BREP_SHAPE_REPRESENTATION ( '3246-E0W', ( #4, #207 ), #202 ) ;
#202 =( GEOMETRIC_REPRESENTATION_CONTEXT ( 3 ) GLOBAL_UNCERTAINTY_ASSIGNED_CONTEXT ( ( #203 ) ) GLOBAL_UNIT_ASSIGNED_CONTEXT ( ( #206, #205, #204 ) ) REPRESENTATION_CONTEXT ( 'NONE', 'WORKASPACE' ) );
#203 = UNCERTAINTY_MEASURE_WITH_UNIT (LENGTH_MEASURE( 1.000000000000000100E-005 ), #206, 'distance_accuracy_value', 'NONE');
#204 =( NAMED_UNIT ( * ) SI_UNIT ( $, .STERADIAN. ) SOLID_ANGLE_UNIT ( ) );
#205 =( NAMED_UNIT ( * ) PLANE_ANGLE_UNIT ( ) SI_UNIT ( $, .RADIAN. ) );
#206 =( LENGTH_UNIT ( ) NAMED_UNIT ( * ) SI_UNIT ( .MILLI., .METRE. ) );
#207 = AXIS2_PLACEMENT_3D ( 'NONE', #255, #254, #253 ) ;
#208 = DIRECTION ( 'NONE',  ( -0.0000000000000000000, -0.0000000000000000000, 1.000000000000000000 ) ) ;
#209 = VECTOR ( 'NONE', #208, 1000.000000000000000 ) ;
#210 = CARTESIAN_POINT ( 'NONE',  ( -12.69999999999999900, 1.555250069354419100E-015, 4.308132045400366600 ) ) ;
#211 = LINE ( 'NONE', #210, #209 ) ;
#212 = CARTESIAN_POINT ( 'NONE',  ( 0.0000000000000000000, 12.69999999999999900, -2.331562638740900100 ) ) ;
#213 = DIRECTION ( 'NONE',  ( 1.000000000000000000, 0.0000000000000000000, 0.0000000000000000000 ) ) ;
#214 = DIRECTION ( 'NONE',  ( -0.0000000000000000000, -0.0000000000000000000, 1.000000000000000000 ) ) ;
#215 = CARTESIAN_POINT ( 'NONE',  ( 0.0000000000000000000, 0.0000000000000000000, -2.331562638740901000 ) ) ;
#216 = AXIS2_PLACEMENT_3D ( 'NONE', #215, #214, #213 ) ;
#217 = CIRCLE ( 'NONE', #216, 12.69999999999999900 ) ;
#218 = CARTESIAN_POINT ( 'NONE',  ( 0.0000000000000000000, 0.0000000000000000000, 4.308132045400366600 ) ) ;
#219 = AXIS2_PLACEMENT_3D ( 'NONE', #218, #250, #249 ) ;
#220 = CYLINDRICAL_SURFACE ( 'NONE', #219, 12.69999999999999900 ) ;
#221 =( GEOMETRIC_REPRESENTATION_CONTEXT ( 3 ) GLOBAL_UNCERTAINTY_ASSIGNED_CONTEXT ( ( #222 ) ) GLOBAL_UNIT_ASSIGNED_CONTEXT ( ( #225, #224, #223 ) ) REPRESENTATION_CONTEXT ( 'NONE', 'WORKASPACE' ) );
#222 = UNCERTAINTY_MEASURE_WITH_UNIT (LENGTH_MEASURE( 1.000000000000000100E-005 ), #225, 'distance_accuracy_value', 'NONE');
#223 =( NAMED_UNIT ( * ) SI_UNIT ( $, .STERADIAN. ) SOLID_ANGLE_UNIT ( ) );
#224 =( NAMED_UNIT ( * ) PLANE_ANGLE_UNIT ( ) SI_UNIT ( $, .RADIAN. ) );
#225 =( LENGTH_UNIT ( ) NAMED_UNIT ( * ) SI_UNIT ( .MILLI., .METRE. ) );
#226 = MECHANICAL_DESIGN_GEOMETRIC_PRESENTATION_REPRESENTATION (  '', ( #228 ), #221 ) ;
#227 = PRESENTATION_LAYER_ASSIGNMENT (  '', '', ( #228 ) ) ;
#228 = STYLED_ITEM ( 'NONE', ( #229 ), #32 ) ;
#229 = PRESENTATION_STYLE_ASSIGNMENT (( #230 ) ) ;
#230 = SURFACE_STYLE_USAGE ( .BOTH. , #170 ) ;
#231 = CARTESIAN_POINT ( 'NONE',  ( -12.69999999999999900, 1.555250069354419100E-015, -2.331562638740901000 ) ) ;
#232 = DIRECTION ( 'NONE',  ( 1.000000000000000000, 0.0000000000000000000, 0.0000000000000000000 ) ) ;
#233 = DIRECTION ( 'NONE',  ( -0.0000000000000000000, -0.0000000000000000000, 1.000000000000000000 ) ) ;
#234 = CARTESIAN_POINT ( 'NONE',  ( 0.0000000000000000000, 0.0000000000000000000, -2.331562638740901000 ) ) ;
#235 = AXIS2_PLACEMENT_3D ( 'NONE', #234, #233, #232 ) ;
#236 = CIRCLE ( 'NONE', #235, 12.69999999999999900 ) ;
#237 = CARTESIAN_POINT ( 'NONE',  ( 12.69999999999999900, 0.0000000000000000000, -2.331562638740901000 ) ) ;
#238 = DIRECTION ( 'NONE',  ( 1.000000000000000000, 0.0000000000000000000, 0.0000000000000000000 ) ) ;
#239 = DIRECTION ( 'NONE',  ( -0.0000000000000000000, -0.0000000000000000000, 1.000000000000000000 ) ) ;
#240 = CARTESIAN_POINT ( 'NONE',  ( 0.0000000000000000000, 0.0000000000000000000, -2.331562638740901000 ) ) ;
#241 = AXIS2_PLACEMENT_3D ( 'NONE', #240, #239, #238 ) ;
#242 = CIRCLE ( 'NONE', #241, 12.69999999999999900 ) ;
#243 = CARTESIAN_POINT ( 'NONE',  ( -12.69999999999999900, 1.555250069354419100E-015, -4.320000000000001200 ) ) ;
#244 = CARTESIAN_POINT ( 'NONE',  ( 12.69999999999999900, 0.0000000000000000000, -4.320000000000001200 ) ) ;
#245 = DIRECTION ( 'NONE',  ( 1.000000000000000000, 0.0000000000000000000, 0.0000000000000000000 ) ) ;
#246 = DIRECTION ( 'NONE',  ( -0.0000000000000000000, -0.0000000000000000000, 1.000000000000000000 ) ) ;
#247 = CARTESIAN_POINT ( 'NONE',  ( 0.0000000000000000000, 0.0000000000000000000, -4.320000000000001200 ) ) ;
#248 = AXIS2_PLACEMENT_3D ( 'NONE', #247, #246, #245 ) ;
#249 = DIRECTION ( 'NONE',  ( 1.000000000000000000, 0.0000000000000000000, 0.0000000000000000000 ) ) ;
#250 = DIRECTION ( 'NONE',  ( -0.0000000000000000000, -0.0000000000000000000, 1.000000000000000000 ) ) ;
#251 = CIRCLE ( 'NONE', #248, 12.69999999999999900 ) ;
#252 = UNCERTAINTY_MEASURE_WITH_UNIT (LENGTH_MEASURE( 1.000000000000000100E-005 ), #140, 'distance_accuracy_value', 'NONE');
#253 = DIRECTION ( 'NONE',  ( 1.000000000000000000, 0.0000000000000000000, 0.0000000000000000000 ) ) ;
#254 = DIRECTION ( 'NONE',  ( 0.0000000000000000000, 0.0000000000000000000, 1.000000000000000000 ) ) ;
#255 = CARTESIAN_POINT ( 'NONE',  ( 0.0000000000000000000, 0.0000000000000000000, 0.0000000000000000000 ) ) ;
#256 =( GEOMETRIC_REPRESENTATION_CONTEXT ( 3 ) GLOBAL_UNCERTAINTY_ASSIGNED_CONTEXT ( ( #257 ) ) GLOBAL_UNIT_ASSIGNED_CONTEXT ( ( #260, #259, #258 ) ) REPRESENTATION_CONTEXT ( 'NONE', 'WORKASPACE' ) );
#257 = UNCERTAINTY_MEASURE_WITH_UNIT (LENGTH_MEASURE( 1.000000000000000100E-005 ), #260, 'distance_accuracy_value', 'NONE');
#258 =( NAMED_UNIT ( * ) SI_UNIT ( $, .STERADIAN. ) SOLID_ANGLE_UNIT ( ) );
#259 =( NAMED_UNIT ( * ) PLANE_ANGLE_UNIT ( ) SI_UNIT ( $, .RADIAN. ) );
#260 =( LENGTH_UNIT ( ) NAMED_UNIT ( * ) SI_UNIT ( .MILLI., .METRE. ) );
#261 = PRODUCT_DEFINITION_SHAPE ( 'NONE', 'NONE',  #182 ) ;
ENDSEC;
END-ISO-10303-21;
