ISO-10303-21;
HEADER;
FILE_DESCRIPTION (( 'STEP AP203' ),
    '1' );
FILE_NAME ('Web Model 33004_45685.step',
    '2017-03-01T21:12:20',
    ( '' ),
    ( '' ),
    'SwSTEP 2.0',
    'SolidWorks 2016',
    '' );
FILE_SCHEMA (( 'CONFIG_CONTROL_DESIGN' ));
ENDSEC;

DATA;
#1 = CC_DESIGN_DATE_AND_TIME_ASSIGNMENT ( #76, #104, ( #33 ) ) ;
#2 = ORIENTED_EDGE ( 'NONE', *, *, #161, .F. ) ;
#3 = ORIENTED_EDGE ( 'NONE', *, *, #165, .F. ) ;
#4 = DATE_AND_TIME ( #73, #137 ) ;
#5 = PRODUCT_DEFINITION_SHAPE ( 'NONE', 'NONE',  #33 ) ;
#6 = PRODUCT ( 'Web Model 33004_45685', 'Web Model 33004_45685', '', ( #169 ) ) ;
#7 = PERSON_AND_ORGANIZATION ( #48, #80 ) ;
#8 = PERSON_AND_ORGANIZATION_ROLE ( 'creator' ) ;
#9 = DIRECTION ( 'NONE',  ( 0.0000000000000000000, 0.0000000000000000000, 1.000000000000000000 ) ) ;
#10 = CC_DESIGN_PERSON_AND_ORGANIZATION_ASSIGNMENT ( #170, #8, ( #33 ) ) ;
#11 = DIRECTION ( 'NONE',  ( -0.0000000000000000000, -0.0000000000000000000, -1.000000000000000000 ) ) ;
#12 = SECURITY_CLASSIFICATION ( '', '', #13 ) ;
#13 = SECURITY_CLASSIFICATION_LEVEL ( 'unclassified' ) ;
#14 = PERSON_AND_ORGANIZATION ( #48, #80 ) ;
#15 = DIRECTION ( 'NONE',  ( 0.0000000000000000000, 0.0000000000000000000, 1.000000000000000000 ) ) ;
#16 = DIRECTION ( 'NONE',  ( -0.0000000000000000000, -0.0000000000000000000, -1.000000000000000000 ) ) ;
#17 = CARTESIAN_POINT ( 'NONE',  ( 62.50000000000000000, 7.654042494670956200E-015, -3.250000000000000000 ) ) ;
#18 = DIRECTION ( 'NONE',  ( 1.000000000000000000, 0.0000000000000000000, 0.0000000000000000000 ) ) ;
#19 = CARTESIAN_POINT ( 'NONE',  ( 0.0000000000000000000, 0.0000000000000000000, 3.250000000000000000 ) ) ;
#20 = DIRECTION ( 'NONE',  ( -0.0000000000000000000, -0.0000000000000000000, -1.000000000000000000 ) ) ;
#21 = LINE ( 'NONE', #95, #163 ) ;
#22 = VERTEX_POINT ( 'NONE', #56 ) ;
#23 = CC_DESIGN_APPROVAL ( #26, ( #33 ) ) ;
#24 = CALENDAR_DATE ( 2017, 1, 3 ) ;
#25 = DATE_AND_TIME ( #89, #155 ) ;
#26 = APPROVAL ( #115, 'UNSPECIFIED' ) ;
#27 = APPROVAL_STATUS ( 'not_yet_approved' ) ;
#28 = CALENDAR_DATE ( 2017, 1, 3 ) ;
#29 = ADVANCED_FACE ( 'NONE', ( #150 ), #55, .T. ) ;
#30 = APPROVAL_ROLE ( '' ) ;
#31 = CARTESIAN_POINT ( 'NONE',  ( 62.50000000000000000, 7.654042494670956200E-015, 3.250000000000000000 ) ) ;
#32 = CIRCLE ( 'NONE', #68, 62.50000000000000000 ) ;
#33 = PRODUCT_DEFINITION ( 'UNKNOWN', '', #59, #168 ) ;
#34 = CC_DESIGN_PERSON_AND_ORGANIZATION_ASSIGNMENT ( #103, #98, ( #12 ) ) ;
#35 = ORIENTED_EDGE ( 'NONE', *, *, #135, .F. ) ;
#36 = MANIFOLD_SOLID_BREP ( 'Boss-Extrude1', #113 ) ;
#37 = CC_DESIGN_PERSON_AND_ORGANIZATION_ASSIGNMENT ( #14, #50, ( #6 ) ) ;
#38 = ORIENTED_EDGE ( 'NONE', *, *, #135, .T. ) ;
#39 = COORDINATED_UNIVERSAL_TIME_OFFSET ( 5, 0, .BEHIND. ) ;
#40 = LOCAL_TIME ( 16, 12, 20.00000000000000000, #106 ) ;
#41 = AXIS2_PLACEMENT_3D ( 'NONE', #74, #9, #77 ) ;
#42 = DIRECTION ( 'NONE',  ( 0.0000000000000000000, 0.0000000000000000000, 1.000000000000000000 ) ) ;
#43 = DIRECTION ( 'NONE',  ( 0.0000000000000000000, 0.0000000000000000000, 1.000000000000000000 ) ) ;
#44 = VERTEX_POINT ( 'NONE', #17 ) ;
#45 = EDGE_LOOP ( 'NONE', ( #3, #151, #38, #58 ) ) ;
#46 = CC_DESIGN_APPROVAL ( #119, ( #59 ) ) ;
#47 = APPROVAL_PERSON_ORGANIZATION ( #112, #85, #30 ) ;
#48 = PERSON ( 'UNSPECIFIED', 'UNSPECIFIED', 'UNSPECIFIED', ('UNSPECIFIED'), ('UNSPECIFIED'), ('UNSPECIFIED') ) ;
#49 = COORDINATED_UNIVERSAL_TIME_OFFSET ( 5, 0, .BEHIND. ) ;
#50 = PERSON_AND_ORGANIZATION_ROLE ( 'design_owner' ) ;
#51 = APPROVAL_PERSON_ORGANIZATION ( #118, #26, #129 ) ;
#52 = CARTESIAN_POINT ( 'NONE',  ( 0.0000000000000000000, 0.0000000000000000000, -3.250000000000000000 ) ) ;
#53 = PLANE ( 'NONE',  #105 ) ;
#54 =( GEOMETRIC_REPRESENTATION_CONTEXT ( 3 ) GLOBAL_UNCERTAINTY_ASSIGNED_CONTEXT ( ( #172 ) ) GLOBAL_UNIT_ASSIGNED_CONTEXT ( ( #131, #158, #78 ) ) REPRESENTATION_CONTEXT ( 'NONE', 'WORKASPACE' ) );
#55 = CYLINDRICAL_SURFACE ( 'NONE', #111, 62.50000000000000000 ) ;
#56 = CARTESIAN_POINT ( 'NONE',  ( -62.50000000000000000, 0.0000000000000000000, 3.250000000000000000 ) ) ;
#57 = CC_DESIGN_DATE_AND_TIME_ASSIGNMENT ( #4, #143, ( #12 ) ) ;
#58 = ORIENTED_EDGE ( 'NONE', *, *, #157, .T. ) ;
#59 = PRODUCT_DEFINITION_FORMATION_WITH_SPECIFIED_SOURCE ( 'ANY', '', #6, .NOT_KNOWN. ) ;
#60 = APPROVAL_DATE_TIME ( #127, #85 ) ;
#61 = PERSON_AND_ORGANIZATION ( #48, #80 ) ;
#62 = APPLICATION_PROTOCOL_DEFINITION ( 'international standard', 'config_control_design', 1994, #141 ) ;
#63 = APPROVAL_DATE_TIME ( #130, #26 ) ;
#64 = AXIS2_PLACEMENT_3D ( 'NONE', #120, #42, #92 ) ;
#65 = CC_DESIGN_SECURITY_CLASSIFICATION ( #12, ( #59 ) ) ;
#66 = CARTESIAN_POINT ( 'NONE',  ( 0.0000000000000000000, 0.0000000000000000000, 3.250000000000000000 ) ) ;
#67 = CARTESIAN_POINT ( 'NONE',  ( 62.50000000000000000, 7.654042494670956200E-015, 3.250000000000000000 ) ) ;
#68 = AXIS2_PLACEMENT_3D ( 'NONE', #108, #43, #122 ) ;
#69 = CIRCLE ( 'NONE', #83, 62.50000000000000000 ) ;
#70 = ORIENTED_EDGE ( 'NONE', *, *, #165, .T. ) ;
#71 = AXIS2_PLACEMENT_3D ( 'NONE', #19, #16, #147 ) ;
#72 = CC_DESIGN_PERSON_AND_ORGANIZATION_ASSIGNMENT ( #166, #90, ( #59 ) ) ;
#73 = CALENDAR_DATE ( 2017, 1, 3 ) ;
#74 = CARTESIAN_POINT ( 'NONE',  ( 0.0000000000000000000, 0.0000000000000000000, 0.0000000000000000000 ) ) ;
#75 = APPROVAL_ROLE ( '' ) ;
#76 = DATE_AND_TIME ( #140, #40 ) ;
#77 = DIRECTION ( 'NONE',  ( 1.000000000000000000, 0.0000000000000000000, 0.0000000000000000000 ) ) ;
#78 =( NAMED_UNIT ( * ) SI_UNIT ( $, .STERADIAN. ) SOLID_ANGLE_UNIT ( ) );
#79 = ADVANCED_FACE ( 'NONE', ( #124 ), #53, .T. ) ;
#80 = ORGANIZATION ( 'UNSPECIFIED', 'UNSPECIFIED', '' ) ;
#81 = VECTOR ( 'NONE', #11, 1000.000000000000000 ) ;
#82 = PLANE ( 'NONE',  #87 ) ;
#83 = AXIS2_PLACEMENT_3D ( 'NONE', #156, #107, #171 ) ;
#84 = CIRCLE ( 'NONE', #99, 62.50000000000000000 ) ;
#85 = APPROVAL ( #121, 'UNSPECIFIED' ) ;
#86 = ORIENTED_EDGE ( 'NONE', *, *, #148, .T. ) ;
#87 = AXIS2_PLACEMENT_3D ( 'NONE', #138, #149, #162 ) ;
#88 = LOCAL_TIME ( 16, 12, 20.00000000000000000, #154 ) ;
#89 = CALENDAR_DATE ( 2017, 1, 3 ) ;
#90 = PERSON_AND_ORGANIZATION_ROLE ( 'design_supplier' ) ;
#91 = APPLICATION_PROTOCOL_DEFINITION ( 'international standard', 'config_control_design', 1994, #117 ) ;
#92 = DIRECTION ( 'NONE',  ( 1.000000000000000000, 0.0000000000000000000, 0.0000000000000000000 ) ) ;
#93 = LOCAL_TIME ( 16, 12, 20.00000000000000000, #159 ) ;
#94 = ADVANCED_FACE ( 'NONE', ( #153 ), #82, .F. ) ;
#95 = CARTESIAN_POINT ( 'NONE',  ( -62.50000000000000000, 0.0000000000000000000, 3.250000000000000000 ) ) ;
#96 = CARTESIAN_POINT ( 'NONE',  ( 0.0000000000000000000, 0.0000000000000000000, 3.250000000000000000 ) ) ;
#97 = CC_DESIGN_PERSON_AND_ORGANIZATION_ASSIGNMENT ( #61, #167, ( #59 ) ) ;
#98 = PERSON_AND_ORGANIZATION_ROLE ( 'classification_officer' ) ;
#99 = AXIS2_PLACEMENT_3D ( 'NONE', #52, #146, #18 ) ;
#100 = FACE_OUTER_BOUND ( 'NONE', #45, .T. ) ;
#101 = EDGE_LOOP ( 'NONE', ( #110, #152 ) ) ;
#102 = CC_DESIGN_APPROVAL ( #85, ( #12 ) ) ;
#103 = PERSON_AND_ORGANIZATION ( #48, #80 ) ;
#104 = DATE_TIME_ROLE ( 'creation_date' ) ;
#105 = AXIS2_PLACEMENT_3D ( 'NONE', #66, #15, #116 ) ;
#106 = COORDINATED_UNIVERSAL_TIME_OFFSET ( 5, 0, .BEHIND. ) ;
#107 = DIRECTION ( 'NONE',  ( 0.0000000000000000000, 0.0000000000000000000, 1.000000000000000000 ) ) ;
#108 = CARTESIAN_POINT ( 'NONE',  ( 0.0000000000000000000, 0.0000000000000000000, 3.250000000000000000 ) ) ;
#109 = CIRCLE ( 'NONE', #64, 62.50000000000000000 ) ;
#110 = ORIENTED_EDGE ( 'NONE', *, *, #174, .T. ) ;
#111 = AXIS2_PLACEMENT_3D ( 'NONE', #96, #144, #123 ) ;
#112 = PERSON_AND_ORGANIZATION ( #48, #80 ) ;
#113 = CLOSED_SHELL ( 'NONE', ( #29, #142, #79, #94 ) ) ;
#114 = APPROVAL_PERSON_ORGANIZATION ( #7, #119, #75 ) ;
#115 = APPROVAL_STATUS ( 'not_yet_approved' ) ;
#116 = DIRECTION ( 'NONE',  ( 1.000000000000000000, 0.0000000000000000000, -0.0000000000000000000 ) ) ;
#117 = APPLICATION_CONTEXT ( 'configuration controlled 3d designs of mechanical parts and assemblies' ) ;
#118 = PERSON_AND_ORGANIZATION ( #48, #80 ) ;
#119 = APPROVAL ( #27, 'UNSPECIFIED' ) ;
#120 = CARTESIAN_POINT ( 'NONE',  ( 0.0000000000000000000, 0.0000000000000000000, 3.250000000000000000 ) ) ;
#121 = APPROVAL_STATUS ( 'not_yet_approved' ) ;
#122 = DIRECTION ( 'NONE',  ( 1.000000000000000000, 0.0000000000000000000, 0.0000000000000000000 ) ) ;
#123 = DIRECTION ( 'NONE',  ( -1.000000000000000000, 0.0000000000000000000, 0.0000000000000000000 ) ) ;
#124 = FACE_OUTER_BOUND ( 'NONE', #101, .T. ) ;
#125 = ORIENTED_EDGE ( 'NONE', *, *, #157, .F. ) ;
#126 = EDGE_LOOP ( 'NONE', ( #2, #70, #86, #35 ) ) ;
#127 = DATE_AND_TIME ( #24, #88 ) ;
#128 = APPROVAL_DATE_TIME ( #25, #119 ) ;
#129 = APPROVAL_ROLE ( '' ) ;
#130 = DATE_AND_TIME ( #28, #93 ) ;
#131 =( LENGTH_UNIT ( ) NAMED_UNIT ( * ) SI_UNIT ( .MILLI., .METRE. ) );
#132 = SHAPE_DEFINITION_REPRESENTATION ( #5, #139 ) ;
#133 = PRODUCT_RELATED_PRODUCT_CATEGORY ( 'detail', '', ( #6 ) ) ;
#134 = ORIENTED_EDGE ( 'NONE', *, *, #148, .F. ) ;
#135 = EDGE_CURVE ( 'NONE', #22, #175, #21, .T. ) ;
#136 = EDGE_LOOP ( 'NONE', ( #125, #134 ) ) ;
#137 = LOCAL_TIME ( 16, 12, 20.00000000000000000, #39 ) ;
#138 = CARTESIAN_POINT ( 'NONE',  ( 0.0000000000000000000, 0.0000000000000000000, -3.250000000000000000 ) ) ;
#139 = ADVANCED_BREP_SHAPE_REPRESENTATION ( 'Web Model 33004_45685', ( #36, #41 ), #54 ) ;
#140 = CALENDAR_DATE ( 2017, 1, 3 ) ;
#141 = APPLICATION_CONTEXT ( 'configuration controlled 3d designs of mechanical parts and assemblies' ) ;
#142 = ADVANCED_FACE ( 'NONE', ( #100 ), #173, .T. ) ;
#143 = DATE_TIME_ROLE ( 'classification_date' ) ;
#144 = DIRECTION ( 'NONE',  ( -0.0000000000000000000, -0.0000000000000000000, -1.000000000000000000 ) ) ;
#145 = LINE ( 'NONE', #31, #81 ) ;
#146 = DIRECTION ( 'NONE',  ( 0.0000000000000000000, 0.0000000000000000000, 1.000000000000000000 ) ) ;
#147 = DIRECTION ( 'NONE',  ( -1.000000000000000000, 0.0000000000000000000, 0.0000000000000000000 ) ) ;
#148 = EDGE_CURVE ( 'NONE', #44, #175, #69, .T. ) ;
#149 = DIRECTION ( 'NONE',  ( 0.0000000000000000000, 0.0000000000000000000, 1.000000000000000000 ) ) ;
#150 = FACE_OUTER_BOUND ( 'NONE', #126, .T. ) ;
#151 = ORIENTED_EDGE ( 'NONE', *, *, #174, .F. ) ;
#152 = ORIENTED_EDGE ( 'NONE', *, *, #161, .T. ) ;
#153 = FACE_OUTER_BOUND ( 'NONE', #136, .T. ) ;
#154 = COORDINATED_UNIVERSAL_TIME_OFFSET ( 5, 0, .BEHIND. ) ;
#155 = LOCAL_TIME ( 16, 12, 20.00000000000000000, #49 ) ;
#156 = CARTESIAN_POINT ( 'NONE',  ( 0.0000000000000000000, 0.0000000000000000000, -3.250000000000000000 ) ) ;
#157 = EDGE_CURVE ( 'NONE', #175, #44, #84, .T. ) ;
#158 =( NAMED_UNIT ( * ) PLANE_ANGLE_UNIT ( ) SI_UNIT ( $, .RADIAN. ) );
#159 = COORDINATED_UNIVERSAL_TIME_OFFSET ( 5, 0, .BEHIND. ) ;
#160 = CARTESIAN_POINT ( 'NONE',  ( -62.50000000000000000, 0.0000000000000000000, -3.250000000000000000 ) ) ;
#161 = EDGE_CURVE ( 'NONE', #164, #22, #32, .T. ) ;
#162 = DIRECTION ( 'NONE',  ( 1.000000000000000000, 0.0000000000000000000, -0.0000000000000000000 ) ) ;
#163 = VECTOR ( 'NONE', #20, 1000.000000000000000 ) ;
#164 = VERTEX_POINT ( 'NONE', #67 ) ;
#165 = EDGE_CURVE ( 'NONE', #164, #44, #145, .T. ) ;
#166 = PERSON_AND_ORGANIZATION ( #48, #80 ) ;
#167 = PERSON_AND_ORGANIZATION_ROLE ( 'creator' ) ;
#168 = DESIGN_CONTEXT ( 'detailed design', #141, 'design' ) ;
#169 = MECHANICAL_CONTEXT ( 'NONE', #117, 'mechanical' ) ;
#170 = PERSON_AND_ORGANIZATION ( #48, #80 ) ;
#171 = DIRECTION ( 'NONE',  ( 1.000000000000000000, 0.0000000000000000000, 0.0000000000000000000 ) ) ;
#172 = UNCERTAINTY_MEASURE_WITH_UNIT (LENGTH_MEASURE( 1.000000000000000100E-005 ), #131, 'distance_accuracy_value', 'NONE');
#173 = CYLINDRICAL_SURFACE ( 'NONE', #71, 62.50000000000000000 ) ;
#174 = EDGE_CURVE ( 'NONE', #22, #164, #109, .T. ) ;
#175 = VERTEX_POINT ( 'NONE', #160 ) ;
ENDSEC;
END-ISO-10303-21;
