ISO-10303-21;
HEADER;
FILE_DESCRIPTION (( 'STEP AP203' ),
    '1' );
FILE_NAME ('Web Model 43847_49570.step',
    '2018-03-12T20:49:18',
    ( '' ),
    ( '' ),
    'SwSTEP 2.0',
    'SolidWorks 2016',
    '' );
FILE_SCHEMA (( 'CONFIG_CONTROL_DESIGN' ));
ENDSEC;

DATA;
#1 = CARTESIAN_POINT ( 'NONE',  ( 3.000000000000000000, 6.349999999999998800, -6.349999999999999600 ) ) ;
#2 = AXIS2_PLACEMENT_3D ( 'NONE', #153, #48, #11 ) ;
#3 = ADVANCED_FACE ( 'NONE', ( #151 ), #63, .F. ) ;
#4 = CARTESIAN_POINT ( 'NONE',  ( 3.000000000000000000, 6.349999999999998800, 6.349999999999999600 ) ) ;
#5 = LINE ( 'NONE', #4, #104 ) ;
#6 = AXIS2_PLACEMENT_3D ( 'NONE', #28, #159, #176 ) ;
#7 = CARTESIAN_POINT ( 'NONE',  ( 3.000000000000000000, -6.350000000000000500, 6.350000000000002300 ) ) ;
#8 = CARTESIAN_POINT ( 'NONE',  ( 3.000000000000000000, -6.350000000000000500, 6.350000000000002300 ) ) ;
#9 = DATE_AND_TIME ( #186, #134 ) ;
#10 = ORIENTED_EDGE ( 'NONE', *, *, #99, .F. ) ;
#11 = DIRECTION ( 'NONE',  ( 0.0000000000000000000, -0.0000000000000000000, 1.000000000000000000 ) ) ;
#12 = APPLICATION_CONTEXT ( 'configuration controlled 3d designs of mechanical parts and assemblies' ) ;
#13 = CARTESIAN_POINT ( 'NONE',  ( 3.000000000000000000, 6.349999999999998800, -6.349999999999999600 ) ) ;
#14 = CARTESIAN_POINT ( 'NONE',  ( 3.000000000000000000, 6.349999999999998800, -6.349999999999999600 ) ) ;
#15 = ORIENTED_EDGE ( 'NONE', *, *, #57, .T. ) ;
#16 = PERSON_AND_ORGANIZATION ( #44, #206 ) ;
#17 = DIRECTION ( 'NONE',  ( 0.0000000000000000000, 0.0000000000000000000, 1.000000000000000000 ) ) ;
#18 = VECTOR ( 'NONE', #213, 1000.000000000000000 ) ;
#19 = APPLICATION_PROTOCOL_DEFINITION ( 'international standard', 'config_control_design', 1994, #12 ) ;
#20 =( GEOMETRIC_REPRESENTATION_CONTEXT ( 3 ) GLOBAL_UNCERTAINTY_ASSIGNED_CONTEXT ( ( #196 ) ) GLOBAL_UNIT_ASSIGNED_CONTEXT ( ( #36, #87, #86 ) ) REPRESENTATION_CONTEXT ( 'NONE', 'WORKASPACE' ) );
#21 = EDGE_CURVE ( 'NONE', #100, #148, #98, .T. ) ;
#22 = ORIENTED_EDGE ( 'NONE', *, *, #85, .F. ) ;
#23 = CC_DESIGN_APPROVAL ( #124, ( #183 ) ) ;
#24 = DIRECTION ( 'NONE',  ( 1.000000000000000000, 0.0000000000000000000, 0.0000000000000000000 ) ) ;
#25 = DESIGN_CONTEXT ( 'detailed design', #12, 'design' ) ;
#26 = EDGE_CURVE ( 'NONE', #68, #100, #228, .T. ) ;
#27 = CARTESIAN_POINT ( 'NONE',  ( 3.000000000000000000, -6.350000000000000500, -6.350000000000002300 ) ) ;
#28 = CARTESIAN_POINT ( 'NONE',  ( 3.000000000000000000, 6.349999999999998800, 6.349999999999999600 ) ) ;
#29 = APPROVAL ( #80, 'UNSPECIFIED' ) ;
#30 = VECTOR ( 'NONE', #116, 1000.000000000000000 ) ;
#31 = COORDINATED_UNIVERSAL_TIME_OFFSET ( 5, 0, .BEHIND. ) ;
#32 = VERTEX_POINT ( 'NONE', #1 ) ;
#33 = SECURITY_CLASSIFICATION_LEVEL ( 'unclassified' ) ;
#34 = DIRECTION ( 'NONE',  ( 0.0000000000000000000, 0.0000000000000000000, -1.000000000000000000 ) ) ;
#35 = PRODUCT_DEFINITION_SHAPE ( 'NONE', 'NONE',  #103 ) ;
#36 =( LENGTH_UNIT ( ) NAMED_UNIT ( * ) SI_UNIT ( .MILLI., .METRE. ) );
#37 = LINE ( 'NONE', #161, #143 ) ;
#38 = CALENDAR_DATE ( 2018, 12, 3 ) ;
#39 = VERTEX_POINT ( 'NONE', #149 ) ;
#40 = CC_DESIGN_PERSON_AND_ORGANIZATION_ASSIGNMENT ( #198, #155, ( #183 ) ) ;
#41 = ORIENTED_EDGE ( 'NONE', *, *, #212, .T. ) ;
#42 = FACE_OUTER_BOUND ( 'NONE', #96, .T. ) ;
#43 = PERSON_AND_ORGANIZATION ( #44, #206 ) ;
#44 = PERSON ( 'UNSPECIFIED', 'UNSPECIFIED', 'UNSPECIFIED', ('UNSPECIFIED'), ('UNSPECIFIED'), ('UNSPECIFIED') ) ;
#45 = APPROVAL_PERSON_ORGANIZATION ( #93, #162, #211 ) ;
#46 = ORIENTED_EDGE ( 'NONE', *, *, #205, .T. ) ;
#47 = CC_DESIGN_DATE_AND_TIME_ASSIGNMENT ( #9, #208, ( #103 ) ) ;
#48 = DIRECTION ( 'NONE',  ( -0.0000000000000000000, 1.000000000000000000, 0.0000000000000000000 ) ) ;
#49 = LINE ( 'NONE', #222, #56 ) ;
#50 = EDGE_LOOP ( 'NONE', ( #166, #146, #202, #128 ) ) ;
#51 = CLOSED_SHELL ( 'NONE', ( #207, #204, #3, #136, #79, #236 ) ) ;
#52 = AXIS2_PLACEMENT_3D ( 'NONE', #77, #203, #78 ) ;
#53 = DATE_AND_TIME ( #67, #229 ) ;
#54 = ORIENTED_EDGE ( 'NONE', *, *, #21, .T. ) ;
#55 = CC_DESIGN_PERSON_AND_ORGANIZATION_ASSIGNMENT ( #191, #175, ( #235 ) ) ;
#56 = VECTOR ( 'NONE', #137, 1000.000000000000000 ) ;
#57 = EDGE_CURVE ( 'NONE', #230, #68, #5, .T. ) ;
#58 = ORIENTED_EDGE ( 'NONE', *, *, #225, .T. ) ;
#59 = APPROVAL_DATE_TIME ( #233, #124 ) ;
#60 = ORIENTED_EDGE ( 'NONE', *, *, #99, .T. ) ;
#61 = LOCAL_TIME ( 16, 49, 18.00000000000000000, #31 ) ;
#62 = CARTESIAN_POINT ( 'NONE',  ( -3.000000000000000000, -6.350000000000000500, 6.350000000000002300 ) ) ;
#63 = PLANE ( 'NONE',  #52 ) ;
#64 = PRODUCT_RELATED_PRODUCT_CATEGORY ( 'detail', '', ( #129 ) ) ;
#65 = DATE_TIME_ROLE ( 'classification_date' ) ;
#66 = DIRECTION ( 'NONE',  ( 0.0000000000000000000, 0.0000000000000000000, -1.000000000000000000 ) ) ;
#67 = CALENDAR_DATE ( 2018, 12, 3 ) ;
#68 = VERTEX_POINT ( 'NONE', #168 ) ;
#69 = PERSON_AND_ORGANIZATION_ROLE ( 'design_owner' ) ;
#70 = CARTESIAN_POINT ( 'NONE',  ( 3.000000000000000000, 6.349999999999998800, 6.349999999999999600 ) ) ;
#71 = LOCAL_TIME ( 16, 49, 18.00000000000000000, #95 ) ;
#72 = EDGE_LOOP ( 'NONE', ( #41, #111, #164, #197 ) ) ;
#73 = CC_DESIGN_APPROVAL ( #162, ( #103 ) ) ;
#74 = LINE ( 'NONE', #152, #94 ) ;
#75 = PERSON_AND_ORGANIZATION ( #44, #206 ) ;
#76 = VERTEX_POINT ( 'NONE', #27 ) ;
#77 = CARTESIAN_POINT ( 'NONE',  ( 3.000000000000000000, 6.349999999999998800, -6.349999999999999600 ) ) ;
#78 = DIRECTION ( 'NONE',  ( 0.0000000000000000000, -1.000000000000000000, -2.048885995248197400E-016 ) ) ;
#79 = ADVANCED_FACE ( 'NONE', ( #106 ), #201, .T. ) ;
#80 = APPROVAL_STATUS ( 'not_yet_approved' ) ;
#81 = DIRECTION ( 'NONE',  ( 1.000000000000000000, 0.0000000000000000000, 0.0000000000000000000 ) ) ;
#82 = APPROVAL_STATUS ( 'not_yet_approved' ) ;
#83 = CC_DESIGN_DATE_AND_TIME_ASSIGNMENT ( #174, #65, ( #235 ) ) ;
#84 = LINE ( 'NONE', #181, #122 ) ;
#85 = EDGE_CURVE ( 'NONE', #76, #148, #231, .T. ) ;
#86 =( NAMED_UNIT ( * ) SI_UNIT ( $, .STERADIAN. ) SOLID_ANGLE_UNIT ( ) );
#87 =( NAMED_UNIT ( * ) PLANE_ANGLE_UNIT ( ) SI_UNIT ( $, .RADIAN. ) );
#88 = DIRECTION ( 'NONE',  ( 0.0000000000000000000, -2.048885995248197400E-016, -1.000000000000000000 ) ) ;
#89 = LINE ( 'NONE', #13, #131 ) ;
#90 = PERSON_AND_ORGANIZATION ( #44, #206 ) ;
#91 = ORIENTED_EDGE ( 'NONE', *, *, #130, .F. ) ;
#92 = CC_DESIGN_PERSON_AND_ORGANIZATION_ASSIGNMENT ( #192, #69, ( #129 ) ) ;
#93 = PERSON_AND_ORGANIZATION ( #44, #206 ) ;
#94 = VECTOR ( 'NONE', #220, 1000.000000000000000 ) ;
#95 = COORDINATED_UNIVERSAL_TIME_OFFSET ( 5, 0, .BEHIND. ) ;
#96 = EDGE_LOOP ( 'NONE', ( #193, #10, #91, #15 ) ) ;
#97 = AXIS2_PLACEMENT_3D ( 'NONE', #145, #17, #24 ) ;
#98 = LINE ( 'NONE', #62, #30 ) ;
#99 = EDGE_CURVE ( 'NONE', #132, #100, #101, .T. ) ;
#100 = VERTEX_POINT ( 'NONE', #178 ) ;
#101 = LINE ( 'NONE', #8, #144 ) ;
#102 = CARTESIAN_POINT ( 'NONE',  ( 3.000000000000000000, 0.0000000000000000000, 0.0000000000000000000 ) ) ;
#103 = PRODUCT_DEFINITION ( 'UNKNOWN', '', #183, #25 ) ;
#104 = VECTOR ( 'NONE', #188, 1000.000000000000000 ) ;
#105 = APPLICATION_CONTEXT ( 'configuration controlled 3d designs of mechanical parts and assemblies' ) ;
#106 = FACE_OUTER_BOUND ( 'NONE', #214, .T. ) ;
#107 = PLANE ( 'NONE',  #190 ) ;
#108 = PLANE ( 'NONE',  #154 ) ;
#109 = ORIENTED_EDGE ( 'NONE', *, *, #218, .T. ) ;
#110 = EDGE_CURVE ( 'NONE', #32, #230, #74, .T. ) ;
#111 = ORIENTED_EDGE ( 'NONE', *, *, #225, .F. ) ;
#112 = CC_DESIGN_APPROVAL ( #29, ( #235 ) ) ;
#113 = COORDINATED_UNIVERSAL_TIME_OFFSET ( 5, 0, .BEHIND. ) ;
#114 = ADVANCED_BREP_SHAPE_REPRESENTATION ( 'Web Model 43847_49570', ( #232, #97 ), #20 ) ;
#115 = ORIENTED_EDGE ( 'NONE', *, *, #135, .F. ) ;
#116 = DIRECTION ( 'NONE',  ( 0.0000000000000000000, 0.0000000000000000000, -1.000000000000000000 ) ) ;
#117 = PERSON_AND_ORGANIZATION_ROLE ( 'creator' ) ;
#118 = CC_DESIGN_SECURITY_CLASSIFICATION ( #235, ( #183 ) ) ;
#119 = PERSON_AND_ORGANIZATION_ROLE ( 'creator' ) ;
#120 = CARTESIAN_POINT ( 'NONE',  ( 3.000000000000000000, -6.350000000000000500, 6.350000000000002300 ) ) ;
#121 = APPROVAL_ROLE ( '' ) ;
#122 = VECTOR ( 'NONE', #141, 1000.000000000000000 ) ;
#123 = DIRECTION ( 'NONE',  ( -1.000000000000000000, -0.0000000000000000000, -0.0000000000000000000 ) ) ;
#124 = APPROVAL ( #82, 'UNSPECIFIED' ) ;
#125 = DIRECTION ( 'NONE',  ( 0.0000000000000000000, 1.000000000000000000, -2.048885995248197400E-016 ) ) ;
#126 = DIRECTION ( 'NONE',  ( 1.000000000000000000, 0.0000000000000000000, 0.0000000000000000000 ) ) ;
#127 = DIRECTION ( 'NONE',  ( -0.0000000000000000000, 1.000000000000000000, 2.048885995248197400E-016 ) ) ;
#128 = ORIENTED_EDGE ( 'NONE', *, *, #21, .F. ) ;
#129 = PRODUCT ( 'Web Model 43847_49570', 'Web Model 43847_49570', '', ( #139 ) ) ;
#130 = EDGE_CURVE ( 'NONE', #230, #132, #49, .T. ) ;
#131 = VECTOR ( 'NONE', #127, 1000.000000000000000 ) ;
#132 = VERTEX_POINT ( 'NONE', #7 ) ;
#133 = VECTOR ( 'NONE', #34, 1000.000000000000000 ) ;
#134 = LOCAL_TIME ( 16, 49, 18.00000000000000000, #184 ) ;
#135 = EDGE_CURVE ( 'NONE', #132, #76, #221, .T. ) ;
#136 = ADVANCED_FACE ( 'NONE', ( #185 ), #172, .F. ) ;
#137 = DIRECTION ( 'NONE',  ( 0.0000000000000000000, -1.000000000000000000, 2.048885995248197400E-016 ) ) ;
#138 = CALENDAR_DATE ( 2018, 12, 3 ) ;
#139 = MECHANICAL_CONTEXT ( 'NONE', #105, 'mechanical' ) ;
#140 = ORIENTED_EDGE ( 'NONE', *, *, #130, .T. ) ;
#141 = DIRECTION ( 'NONE',  ( -0.0000000000000000000, -0.0000000000000000000, 1.000000000000000000 ) ) ;
#142 = CARTESIAN_POINT ( 'NONE',  ( -3.000000000000000000, 0.0000000000000000000, 0.0000000000000000000 ) ) ;
#143 = VECTOR ( 'NONE', #227, 1000.000000000000000 ) ;
#144 = VECTOR ( 'NONE', #224, 1000.000000000000000 ) ;
#145 = CARTESIAN_POINT ( 'NONE',  ( 0.0000000000000000000, 0.0000000000000000000, 0.0000000000000000000 ) ) ;
#146 = ORIENTED_EDGE ( 'NONE', *, *, #205, .F. ) ;
#147 = APPROVAL_STATUS ( 'not_yet_approved' ) ;
#148 = VERTEX_POINT ( 'NONE', #156 ) ;
#149 = CARTESIAN_POINT ( 'NONE',  ( -3.000000000000000000, 6.349999999999998800, -6.349999999999999600 ) ) ;
#150 = APPROVAL_DATE_TIME ( #173, #29 ) ;
#151 = FACE_OUTER_BOUND ( 'NONE', #72, .T. ) ;
#152 = CARTESIAN_POINT ( 'NONE',  ( 3.000000000000000000, 6.349999999999998800, 6.349999999999999600 ) ) ;
#153 = CARTESIAN_POINT ( 'NONE',  ( 3.000000000000000000, -6.350000000000000500, 6.350000000000002300 ) ) ;
#154 = AXIS2_PLACEMENT_3D ( 'NONE', #215, #88, #125 ) ;
#155 = PERSON_AND_ORGANIZATION_ROLE ( 'design_supplier' ) ;
#156 = CARTESIAN_POINT ( 'NONE',  ( -3.000000000000000000, -6.350000000000000500, -6.350000000000002300 ) ) ;
#157 = ORIENTED_EDGE ( 'NONE', *, *, #135, .T. ) ;
#158 = APPROVAL_PERSON_ORGANIZATION ( #90, #124, #121 ) ;
#159 = DIRECTION ( 'NONE',  ( 0.0000000000000000000, -1.000000000000000000, 0.0000000000000000000 ) ) ;
#160 = CALENDAR_DATE ( 2018, 12, 3 ) ;
#161 = CARTESIAN_POINT ( 'NONE',  ( -3.000000000000000000, 6.349999999999998800, -6.349999999999999600 ) ) ;
#162 = APPROVAL ( #147, 'UNSPECIFIED' ) ;
#163 = APPROVAL_DATE_TIME ( #53, #162 ) ;
#164 = ORIENTED_EDGE ( 'NONE', *, *, #218, .F. ) ;
#165 = LINE ( 'NONE', #14, #18 ) ;
#166 = ORIENTED_EDGE ( 'NONE', *, *, #26, .F. ) ;
#167 = APPROVAL_PERSON_ORGANIZATION ( #75, #29, #171 ) ;
#168 = CARTESIAN_POINT ( 'NONE',  ( -3.000000000000000000, 6.349999999999998800, 6.349999999999999600 ) ) ;
#169 = SHAPE_DEFINITION_REPRESENTATION ( #35, #114 ) ;
#170 = DIRECTION ( 'NONE',  ( 0.0000000000000000000, -1.000000000000000000, 2.048885995248197400E-016 ) ) ;
#171 = APPROVAL_ROLE ( '' ) ;
#172 = PLANE ( 'NONE',  #6 ) ;
#173 = DATE_AND_TIME ( #160, #200 ) ;
#174 = DATE_AND_TIME ( #38, #61 ) ;
#175 = PERSON_AND_ORGANIZATION_ROLE ( 'classification_officer' ) ;
#176 = DIRECTION ( 'NONE',  ( 0.0000000000000000000, -0.0000000000000000000, -1.000000000000000000 ) ) ;
#177 = CC_DESIGN_PERSON_AND_ORGANIZATION_ASSIGNMENT ( #43, #119, ( #183 ) ) ;
#178 = CARTESIAN_POINT ( 'NONE',  ( -3.000000000000000000, -6.350000000000000500, 6.350000000000002300 ) ) ;
#179 = PLANE ( 'NONE',  #2 ) ;
#180 = APPLICATION_PROTOCOL_DEFINITION ( 'international standard', 'config_control_design', 1994, #105 ) ;
#181 = CARTESIAN_POINT ( 'NONE',  ( -3.000000000000000000, 6.349999999999998800, 6.349999999999999600 ) ) ;
#182 = DIRECTION ( 'NONE',  ( 0.0000000000000000000, 0.0000000000000000000, -1.000000000000000000 ) ) ;
#183 = PRODUCT_DEFINITION_FORMATION_WITH_SPECIFIED_SOURCE ( 'ANY', '', #129, .NOT_KNOWN. ) ;
#184 = COORDINATED_UNIVERSAL_TIME_OFFSET ( 5, 0, .BEHIND. ) ;
#185 = FACE_OUTER_BOUND ( 'NONE', #217, .T. ) ;
#186 = CALENDAR_DATE ( 2018, 12, 3 ) ;
#187 = VECTOR ( 'NONE', #170, 1000.000000000000000 ) ;
#188 = DIRECTION ( 'NONE',  ( -1.000000000000000000, -0.0000000000000000000, -0.0000000000000000000 ) ) ;
#189 = CARTESIAN_POINT ( 'NONE',  ( 3.000000000000000000, -6.350000000000000500, -6.350000000000002300 ) ) ;
#190 = AXIS2_PLACEMENT_3D ( 'NONE', #142, #126, #182 ) ;
#191 = PERSON_AND_ORGANIZATION ( #44, #206 ) ;
#192 = PERSON_AND_ORGANIZATION ( #44, #206 ) ;
#193 = ORIENTED_EDGE ( 'NONE', *, *, #26, .T. ) ;
#194 = AXIS2_PLACEMENT_3D ( 'NONE', #102, #81, #66 ) ;
#195 = VECTOR ( 'NONE', #123, 1000.000000000000000 ) ;
#196 = UNCERTAINTY_MEASURE_WITH_UNIT (LENGTH_MEASURE( 1.000000000000000100E-005 ), #36, 'distance_accuracy_value', 'NONE');
#197 = ORIENTED_EDGE ( 'NONE', *, *, #85, .T. ) ;
#198 = PERSON_AND_ORGANIZATION ( #44, #206 ) ;
#199 = EDGE_LOOP ( 'NONE', ( #54, #22, #115, #60 ) ) ;
#200 = LOCAL_TIME ( 16, 49, 18.00000000000000000, #113 ) ;
#201 = PLANE ( 'NONE',  #194 ) ;
#202 = ORIENTED_EDGE ( 'NONE', *, *, #212, .F. ) ;
#203 = DIRECTION ( 'NONE',  ( 0.0000000000000000000, -2.048885995248197400E-016, 1.000000000000000000 ) ) ;
#204 = ADVANCED_FACE ( 'NONE', ( #226 ), #179, .F. ) ;
#205 = EDGE_CURVE ( 'NONE', #39, #68, #84, .T. ) ;
#206 = ORGANIZATION ( 'UNSPECIFIED', 'UNSPECIFIED', '' ) ;
#207 = ADVANCED_FACE ( 'NONE', ( #42 ), #108, .F. ) ;
#208 = DATE_TIME_ROLE ( 'creation_date' ) ;
#209 = FACE_OUTER_BOUND ( 'NONE', #50, .T. ) ;
#210 = ORIENTED_EDGE ( 'NONE', *, *, #110, .T. ) ;
#211 = APPROVAL_ROLE ( '' ) ;
#212 = EDGE_CURVE ( 'NONE', #148, #39, #37, .T. ) ;
#213 = DIRECTION ( 'NONE',  ( -1.000000000000000000, -0.0000000000000000000, -0.0000000000000000000 ) ) ;
#214 = EDGE_LOOP ( 'NONE', ( #140, #157, #109, #210 ) ) ;
#215 = CARTESIAN_POINT ( 'NONE',  ( 3.000000000000000000, 6.349999999999998800, 6.349999999999999600 ) ) ;
#216 = CC_DESIGN_PERSON_AND_ORGANIZATION_ASSIGNMENT ( #16, #117, ( #103 ) ) ;
#217 = EDGE_LOOP ( 'NONE', ( #46, #234, #219, #58 ) ) ;
#218 = EDGE_CURVE ( 'NONE', #76, #32, #89, .T. ) ;
#219 = ORIENTED_EDGE ( 'NONE', *, *, #110, .F. ) ;
#220 = DIRECTION ( 'NONE',  ( -0.0000000000000000000, -0.0000000000000000000, 1.000000000000000000 ) ) ;
#221 = LINE ( 'NONE', #120, #133 ) ;
#222 = CARTESIAN_POINT ( 'NONE',  ( 3.000000000000000000, 6.349999999999998800, 6.349999999999999600 ) ) ;
#223 = COORDINATED_UNIVERSAL_TIME_OFFSET ( 5, 0, .BEHIND. ) ;
#224 = DIRECTION ( 'NONE',  ( -1.000000000000000000, -0.0000000000000000000, -0.0000000000000000000 ) ) ;
#225 = EDGE_CURVE ( 'NONE', #32, #39, #165, .T. ) ;
#226 = FACE_OUTER_BOUND ( 'NONE', #199, .T. ) ;
#227 = DIRECTION ( 'NONE',  ( -0.0000000000000000000, 1.000000000000000000, 2.048885995248197400E-016 ) ) ;
#228 = LINE ( 'NONE', #237, #187 ) ;
#229 = LOCAL_TIME ( 16, 49, 18.00000000000000000, #223 ) ;
#230 = VERTEX_POINT ( 'NONE', #70 ) ;
#231 = LINE ( 'NONE', #189, #195 ) ;
#232 = MANIFOLD_SOLID_BREP ( 'Boss-Extrude1', #51 ) ;
#233 = DATE_AND_TIME ( #138, #71 ) ;
#234 = ORIENTED_EDGE ( 'NONE', *, *, #57, .F. ) ;
#235 = SECURITY_CLASSIFICATION ( '', '', #33 ) ;
#236 = ADVANCED_FACE ( 'NONE', ( #209 ), #107, .F. ) ;
#237 = CARTESIAN_POINT ( 'NONE',  ( -3.000000000000000000, 6.349999999999998800, 6.349999999999999600 ) ) ;
ENDSEC;
END-ISO-10303-21;
