ISO-10303-21;
HEADER;
FILE_DESCRIPTION (( 'STEP AP203' ),
    '1' );
FILE_NAME ('Web Model 47231_49636.step',
    '2019-01-07T15:27:46',
    ( '' ),
    ( '' ),
    'SwSTEP 2.0',
    'SolidWorks 2016',
    '' );
FILE_SCHEMA (( 'CONFIG_CONTROL_DESIGN' ));
ENDSEC;

DATA;
#1 = PERSON_AND_ORGANIZATION ( #151, #116 ) ;
#2 = FACE_OUTER_BOUND ( 'NONE', #14, .T. ) ;
#3 = CALENDAR_DATE ( 2019, 7, 1 ) ;
#4 = VECTOR ( 'NONE', #48, 1000.000000000000000 ) ;
#5 = APPROVAL ( #192, 'UNSPECIFIED' ) ;
#6 = APPROVAL_DATE_TIME ( #82, #134 ) ;
#7 = EDGE_CURVE ( 'NONE', #195, #224, #205, .T. ) ;
#8 = CARTESIAN_POINT ( 'NONE',  ( -25.00000000000000400, 25.00000000000000400, -2.000000000000000000 ) ) ;
#9 = CARTESIAN_POINT ( 'NONE',  ( 25.00000000000000000, 25.00000000000000400, 2.000000000000000000 ) ) ;
#10 = CARTESIAN_POINT ( 'NONE',  ( 0.0000000000000000000, 0.0000000000000000000, 2.000000000000000000 ) ) ;
#11 = CC_DESIGN_PERSON_AND_ORGANIZATION_ASSIGNMENT ( #1, #175, ( #200 ) ) ;
#12 = CARTESIAN_POINT ( 'NONE',  ( 25.00000000000000000, -25.00000000000000000, 2.000000000000000000 ) ) ;
#13 = PERSON_AND_ORGANIZATION ( #151, #116 ) ;
#14 = EDGE_LOOP ( 'NONE', ( #132, #104, #26, #156 ) ) ;
#15 = DIRECTION ( 'NONE',  ( -1.000000000000000000, 0.0000000000000000000, -0.0000000000000000000 ) ) ;
#16 = DIRECTION ( 'NONE',  ( 0.0000000000000000000, 1.000000000000000000, 0.0000000000000000000 ) ) ;
#17 = CALENDAR_DATE ( 2019, 7, 1 ) ;
#18 = DATE_TIME_ROLE ( 'classification_date' ) ;
#19 = DIRECTION ( 'NONE',  ( -0.0000000000000000000, -0.0000000000000000000, -1.000000000000000000 ) ) ;
#20 = LOCAL_TIME ( 10, 27, 46.00000000000000000, #235 ) ;
#21 = EDGE_LOOP ( 'NONE', ( #139, #30, #190, #218 ) ) ;
#22 = PERSON_AND_ORGANIZATION ( #151, #116 ) ;
#23 = EDGE_CURVE ( 'NONE', #133, #221, #114, .T. ) ;
#24 = LINE ( 'NONE', #107, #100 ) ;
#25 = CC_DESIGN_SECURITY_CLASSIFICATION ( #200, ( #207 ) ) ;
#26 = ORIENTED_EDGE ( 'NONE', *, *, #109, .F. ) ;
#27 = EDGE_CURVE ( 'NONE', #133, #199, #137, .T. ) ;
#28 = VERTEX_POINT ( 'NONE', #9 ) ;
#29 = APPROVAL_PERSON_ORGANIZATION ( #13, #134, #230 ) ;
#30 = ORIENTED_EDGE ( 'NONE', *, *, #145, .F. ) ;
#31 = DIRECTION ( 'NONE',  ( 0.0000000000000000000, 0.0000000000000000000, -1.000000000000000000 ) ) ;
#32 = DIRECTION ( 'NONE',  ( 0.0000000000000000000, -0.0000000000000000000, 1.000000000000000000 ) ) ;
#33 = DIRECTION ( 'NONE',  ( 1.000000000000000000, 0.0000000000000000000, 0.0000000000000000000 ) ) ;
#34 = CARTESIAN_POINT ( 'NONE',  ( -25.00000000000000400, 25.00000000000000400, 2.000000000000000000 ) ) ;
#35 = LINE ( 'NONE', #119, #125 ) ;
#36 = DIRECTION ( 'NONE',  ( 0.0000000000000000000, 0.0000000000000000000, 1.000000000000000000 ) ) ;
#37 = EDGE_CURVE ( 'NONE', #224, #199, #85, .T. ) ;
#38 = DIRECTION ( 'NONE',  ( 1.000000000000000000, 0.0000000000000000000, 0.0000000000000000000 ) ) ;
#39 = FACE_OUTER_BOUND ( 'NONE', #97, .T. ) ;
#40 = VERTEX_POINT ( 'NONE', #171 ) ;
#41 = CC_DESIGN_APPROVAL ( #5, ( #207 ) ) ;
#42 = EDGE_CURVE ( 'NONE', #199, #76, #35, .T. ) ;
#43 = ORIENTED_EDGE ( 'NONE', *, *, #180, .F. ) ;
#44 = ORIENTED_EDGE ( 'NONE', *, *, #27, .T. ) ;
#45 = ORIENTED_EDGE ( 'NONE', *, *, #109, .T. ) ;
#46 = AXIS2_PLACEMENT_3D ( 'NONE', #34, #54, #143 ) ;
#47 = CARTESIAN_POINT ( 'NONE',  ( -25.00000000000000400, -25.00000000000000000, -2.000000000000000000 ) ) ;
#48 = DIRECTION ( 'NONE',  ( -0.0000000000000000000, -1.000000000000000000, -0.0000000000000000000 ) ) ;
#49 = DIRECTION ( 'NONE',  ( -1.000000000000000000, 0.0000000000000000000, 0.0000000000000000000 ) ) ;
#50 = PLANE ( 'NONE',  #91 ) ;
#51 = CALENDAR_DATE ( 2019, 7, 1 ) ;
#52 = ORIENTED_EDGE ( 'NONE', *, *, #7, .F. ) ;
#53 =( NAMED_UNIT ( * ) PLANE_ANGLE_UNIT ( ) SI_UNIT ( $, .RADIAN. ) );
#54 = DIRECTION ( 'NONE',  ( 0.0000000000000000000, -1.000000000000000000, 0.0000000000000000000 ) ) ;
#55 = VECTOR ( 'NONE', #229, 1000.000000000000000 ) ;
#56 = ADVANCED_FACE ( 'NONE', ( #172 ), #202, .F. ) ;
#57 = APPROVAL_PERSON_ORGANIZATION ( #193, #5, #110 ) ;
#58 = LINE ( 'NONE', #102, #131 ) ;
#59 = EDGE_CURVE ( 'NONE', #221, #76, #95, .T. ) ;
#60 = PRODUCT ( 'Web Model 47231_49636', 'Web Model 47231_49636', '', ( #123 ) ) ;
#61 = CC_DESIGN_PERSON_AND_ORGANIZATION_ASSIGNMENT ( #181, #211, ( #207 ) ) ;
#62 = LOCAL_TIME ( 10, 27, 46.00000000000000000, #75 ) ;
#63 = VECTOR ( 'NONE', #67, 1000.000000000000000 ) ;
#64 = PRODUCT_DEFINITION_SHAPE ( 'NONE', 'NONE',  #124 ) ;
#65 = CC_DESIGN_PERSON_AND_ORGANIZATION_ASSIGNMENT ( #121, #94, ( #60 ) ) ;
#66 = CARTESIAN_POINT ( 'NONE',  ( 25.00000000000000000, -25.00000000000000000, 2.000000000000000000 ) ) ;
#67 = DIRECTION ( 'NONE',  ( 1.000000000000000000, 0.0000000000000000000, 0.0000000000000000000 ) ) ;
#68 = CARTESIAN_POINT ( 'NONE',  ( 25.00000000000000000, -25.00000000000000000, -2.000000000000000000 ) ) ;
#69 = DATE_AND_TIME ( #152, #204 ) ;
#70 = ORIENTED_EDGE ( 'NONE', *, *, #167, .T. ) ;
#71 = DIRECTION ( 'NONE',  ( 0.0000000000000000000, 0.0000000000000000000, -1.000000000000000000 ) ) ;
#72 = APPLICATION_PROTOCOL_DEFINITION ( 'international standard', 'config_control_design', 1994, #226 ) ;
#73 = APPROVAL_DATE_TIME ( #186, #130 ) ;
#74 = CARTESIAN_POINT ( 'NONE',  ( 0.0000000000000000000, 0.0000000000000000000, 0.0000000000000000000 ) ) ;
#75 = COORDINATED_UNIVERSAL_TIME_OFFSET ( 5, 0, .BEHIND. ) ;
#76 = VERTEX_POINT ( 'NONE', #68 ) ;
#77 = CC_DESIGN_DATE_AND_TIME_ASSIGNMENT ( #189, #18, ( #200 ) ) ;
#78 = ADVANCED_FACE ( 'NONE', ( #183 ), #203, .F. ) ;
#79 =( GEOMETRIC_REPRESENTATION_CONTEXT ( 3 ) GLOBAL_UNCERTAINTY_ASSIGNED_CONTEXT ( ( #84 ) ) GLOBAL_UNIT_ASSIGNED_CONTEXT ( ( #176, #53, #157 ) ) REPRESENTATION_CONTEXT ( 'NONE', 'WORKASPACE' ) );
#80 = FACE_OUTER_BOUND ( 'NONE', #21, .T. ) ;
#81 = DESIGN_CONTEXT ( 'detailed design', #209, 'design' ) ;
#82 = DATE_AND_TIME ( #213, #62 ) ;
#83 = ORIENTED_EDGE ( 'NONE', *, *, #201, .T. ) ;
#84 = UNCERTAINTY_MEASURE_WITH_UNIT (LENGTH_MEASURE( 1.000000000000000100E-005 ), #176, 'distance_accuracy_value', 'NONE');
#85 = LINE ( 'NONE', #47, #4 ) ;
#86 = CC_DESIGN_PERSON_AND_ORGANIZATION_ASSIGNMENT ( #22, #140, ( #124 ) ) ;
#87 = PLANE ( 'NONE',  #169 ) ;
#88 = ORIENTED_EDGE ( 'NONE', *, *, #219, .F. ) ;
#89 = PERSON_AND_ORGANIZATION_ROLE ( 'design_supplier' ) ;
#90 = ORIENTED_EDGE ( 'NONE', *, *, #201, .F. ) ;
#91 = AXIS2_PLACEMENT_3D ( 'NONE', #92, #38, #93 ) ;
#92 = CARTESIAN_POINT ( 'NONE',  ( -25.00000000000000400, -25.00000000000000000, 2.000000000000000000 ) ) ;
#93 = DIRECTION ( 'NONE',  ( 0.0000000000000000000, 0.0000000000000000000, -1.000000000000000000 ) ) ;
#94 = PERSON_AND_ORGANIZATION_ROLE ( 'design_owner' ) ;
#95 = LINE ( 'NONE', #66, #153 ) ;
#96 = CC_DESIGN_DATE_AND_TIME_ASSIGNMENT ( #197, #159, ( #124 ) ) ;
#97 = EDGE_LOOP ( 'NONE', ( #43, #228, #122, #52 ) ) ;
#98 = LOCAL_TIME ( 10, 27, 46.00000000000000000, #198 ) ;
#99 = EDGE_LOOP ( 'NONE', ( #236, #88, #90, #214 ) ) ;
#100 = VECTOR ( 'NONE', #212, 1000.000000000000000 ) ;
#101 = DIRECTION ( 'NONE',  ( 0.0000000000000000000, 1.000000000000000000, 0.0000000000000000000 ) ) ;
#102 = CARTESIAN_POINT ( 'NONE',  ( -25.00000000000000400, -25.00000000000000000, 2.000000000000000000 ) ) ;
#103 = PERSON_AND_ORGANIZATION ( #151, #116 ) ;
#104 = ORIENTED_EDGE ( 'NONE', *, *, #27, .F. ) ;
#105 = CARTESIAN_POINT ( 'NONE',  ( -25.00000000000000400, -25.00000000000000000, -2.000000000000000000 ) ) ;
#106 = CARTESIAN_POINT ( 'NONE',  ( -25.00000000000000400, 25.00000000000000400, -2.000000000000000000 ) ) ;
#107 = CARTESIAN_POINT ( 'NONE',  ( 25.00000000000000000, -25.00000000000000000, -2.000000000000000000 ) ) ;
#108 = LINE ( 'NONE', #160, #55 ) ;
#109 = EDGE_CURVE ( 'NONE', #40, #133, #58, .T. ) ;
#110 = APPROVAL_ROLE ( '' ) ;
#111 = ADVANCED_FACE ( 'NONE', ( #148 ), #87, .F. ) ;
#112 = LINE ( 'NONE', #191, #194 ) ;
#113 = MANIFOLD_SOLID_BREP ( 'Boss-Extrude1', #179 ) ;
#114 = LINE ( 'NONE', #222, #63 ) ;
#115 = AXIS2_PLACEMENT_3D ( 'NONE', #231, #71, #15 ) ;
#116 = ORGANIZATION ( 'UNSPECIFIED', 'UNSPECIFIED', '' ) ;
#117 = ORIENTED_EDGE ( 'NONE', *, *, #59, .F. ) ;
#118 = APPROVAL_PERSON_ORGANIZATION ( #177, #130, #142 ) ;
#119 = CARTESIAN_POINT ( 'NONE',  ( -25.00000000000000400, -25.00000000000000000, -2.000000000000000000 ) ) ;
#120 = CARTESIAN_POINT ( 'NONE',  ( -25.00000000000000400, -25.00000000000000000, 2.000000000000000000 ) ) ;
#121 = PERSON_AND_ORGANIZATION ( #151, #116 ) ;
#122 = ORIENTED_EDGE ( 'NONE', *, *, #37, .F. ) ;
#123 = MECHANICAL_CONTEXT ( 'NONE', #226, 'mechanical' ) ;
#124 = PRODUCT_DEFINITION ( 'UNKNOWN', '', #207, #81 ) ;
#125 = VECTOR ( 'NONE', #188, 1000.000000000000000 ) ;
#126 = CARTESIAN_POINT ( 'NONE',  ( 25.00000000000000000, -25.00000000000000000, 2.000000000000000000 ) ) ;
#127 = CARTESIAN_POINT ( 'NONE',  ( 25.00000000000000000, 25.00000000000000400, 2.000000000000000000 ) ) ;
#128 = APPROVAL_STATUS ( 'not_yet_approved' ) ;
#129 = VECTOR ( 'NONE', #223, 1000.000000000000000 ) ;
#130 = APPROVAL ( #128, 'UNSPECIFIED' ) ;
#131 = VECTOR ( 'NONE', #225, 1000.000000000000000 ) ;
#132 = ORIENTED_EDGE ( 'NONE', *, *, #37, .T. ) ;
#133 = VERTEX_POINT ( 'NONE', #185 ) ;
#134 = APPROVAL ( #173, 'UNSPECIFIED' ) ;
#135 = DIRECTION ( 'NONE',  ( -0.0000000000000000000, -0.0000000000000000000, -1.000000000000000000 ) ) ;
#136 = DIRECTION ( 'NONE',  ( -0.0000000000000000000, -0.0000000000000000000, -1.000000000000000000 ) ) ;
#137 = LINE ( 'NONE', #120, #129 ) ;
#138 = DIRECTION ( 'NONE',  ( -1.000000000000000000, -0.0000000000000000000, -0.0000000000000000000 ) ) ;
#139 = ORIENTED_EDGE ( 'NONE', *, *, #7, .T. ) ;
#140 = PERSON_AND_ORGANIZATION_ROLE ( 'creator' ) ;
#141 = APPLICATION_PROTOCOL_DEFINITION ( 'international standard', 'config_control_design', 1994, #209 ) ;
#142 = APPROVAL_ROLE ( '' ) ;
#143 = DIRECTION ( 'NONE',  ( 0.0000000000000000000, -0.0000000000000000000, -1.000000000000000000 ) ) ;
#144 = LINE ( 'NONE', #184, #162 ) ;
#145 = EDGE_CURVE ( 'NONE', #40, #224, #144, .T. ) ;
#146 = ADVANCED_FACE ( 'NONE', ( #80 ), #170, .F. ) ;
#147 = LOCAL_TIME ( 10, 27, 46.00000000000000000, #161 ) ;
#148 = FACE_OUTER_BOUND ( 'NONE', #166, .T. ) ;
#149 = CC_DESIGN_APPROVAL ( #134, ( #124 ) ) ;
#150 = APPROVAL_DATE_TIME ( #69, #5 ) ;
#151 = PERSON ( 'UNSPECIFIED', 'UNSPECIFIED', 'UNSPECIFIED', ('UNSPECIFIED'), ('UNSPECIFIED'), ('UNSPECIFIED') ) ;
#152 = CALENDAR_DATE ( 2019, 7, 1 ) ;
#153 = VECTOR ( 'NONE', #136, 1000.000000000000000 ) ;
#154 = DIRECTION ( 'NONE',  ( -1.000000000000000000, 0.0000000000000000000, -0.0000000000000000000 ) ) ;
#155 = VECTOR ( 'NONE', #19, 1000.000000000000000 ) ;
#156 = ORIENTED_EDGE ( 'NONE', *, *, #145, .T. ) ;
#157 =( NAMED_UNIT ( * ) SI_UNIT ( $, .STERADIAN. ) SOLID_ANGLE_UNIT ( ) );
#158 = CARTESIAN_POINT ( 'NONE',  ( 25.00000000000000000, 25.00000000000000400, -2.000000000000000000 ) ) ;
#159 = DATE_TIME_ROLE ( 'creation_date' ) ;
#160 = CARTESIAN_POINT ( 'NONE',  ( -25.00000000000000400, 25.00000000000000400, 2.000000000000000000 ) ) ;
#161 = COORDINATED_UNIVERSAL_TIME_OFFSET ( 5, 0, .BEHIND. ) ;
#162 = VECTOR ( 'NONE', #135, 1000.000000000000000 ) ;
#163 = LINE ( 'NONE', #127, #155 ) ;
#164 = ADVANCED_FACE ( 'NONE', ( #2 ), #50, .F. ) ;
#165 = COORDINATED_UNIVERSAL_TIME_OFFSET ( 5, 0, .BEHIND. ) ;
#166 = EDGE_LOOP ( 'NONE', ( #216, #117, #182, #44 ) ) ;
#167 = EDGE_CURVE ( 'NONE', #28, #40, #108, .T. ) ;
#168 = ORIENTED_EDGE ( 'NONE', *, *, #23, .T. ) ;
#169 = AXIS2_PLACEMENT_3D ( 'NONE', #206, #101, #32 ) ;
#170 = PLANE ( 'NONE',  #46 ) ;
#171 = CARTESIAN_POINT ( 'NONE',  ( -25.00000000000000400, 25.00000000000000400, 2.000000000000000000 ) ) ;
#172 = FACE_OUTER_BOUND ( 'NONE', #233, .T. ) ;
#173 = APPROVAL_STATUS ( 'not_yet_approved' ) ;
#174 = VECTOR ( 'NONE', #138, 1000.000000000000000 ) ;
#175 = PERSON_AND_ORGANIZATION_ROLE ( 'classification_officer' ) ;
#176 =( LENGTH_UNIT ( ) NAMED_UNIT ( * ) SI_UNIT ( .MILLI., .METRE. ) );
#177 = PERSON_AND_ORGANIZATION ( #151, #116 ) ;
#178 = CC_DESIGN_PERSON_AND_ORGANIZATION_ASSIGNMENT ( #103, #89, ( #207 ) ) ;
#179 = CLOSED_SHELL ( 'NONE', ( #78, #146, #164, #111, #56, #196 ) ) ;
#180 = EDGE_CURVE ( 'NONE', #76, #195, #24, .T. ) ;
#181 = PERSON_AND_ORGANIZATION ( #151, #116 ) ;
#182 = ORIENTED_EDGE ( 'NONE', *, *, #23, .F. ) ;
#183 = FACE_OUTER_BOUND ( 'NONE', #99, .T. ) ;
#184 = CARTESIAN_POINT ( 'NONE',  ( -25.00000000000000400, 25.00000000000000400, 2.000000000000000000 ) ) ;
#185 = CARTESIAN_POINT ( 'NONE',  ( -25.00000000000000400, -25.00000000000000000, 2.000000000000000000 ) ) ;
#186 = DATE_AND_TIME ( #51, #147 ) ;
#187 = DIRECTION ( 'NONE',  ( 0.0000000000000000000, 0.0000000000000000000, 1.000000000000000000 ) ) ;
#188 = DIRECTION ( 'NONE',  ( 1.000000000000000000, 0.0000000000000000000, 0.0000000000000000000 ) ) ;
#189 = DATE_AND_TIME ( #3, #20 ) ;
#190 = ORIENTED_EDGE ( 'NONE', *, *, #167, .F. ) ;
#191 = CARTESIAN_POINT ( 'NONE',  ( 25.00000000000000000, -25.00000000000000000, 2.000000000000000000 ) ) ;
#192 = APPROVAL_STATUS ( 'not_yet_approved' ) ;
#193 = PERSON_AND_ORGANIZATION ( #151, #116 ) ;
#194 = VECTOR ( 'NONE', #16, 1000.000000000000000 ) ;
#195 = VERTEX_POINT ( 'NONE', #158 ) ;
#196 = ADVANCED_FACE ( 'NONE', ( #39 ), #208, .T. ) ;
#197 = DATE_AND_TIME ( #17, #98 ) ;
#198 = COORDINATED_UNIVERSAL_TIME_OFFSET ( 5, 0, .BEHIND. ) ;
#199 = VERTEX_POINT ( 'NONE', #105 ) ;
#200 = SECURITY_CLASSIFICATION ( '', '', #232 ) ;
#201 = EDGE_CURVE ( 'NONE', #221, #28, #112, .T. ) ;
#202 = PLANE ( 'NONE',  #220 ) ;
#203 = PLANE ( 'NONE',  #237 ) ;
#204 = LOCAL_TIME ( 10, 27, 46.00000000000000000, #165 ) ;
#205 = LINE ( 'NONE', #8, #174 ) ;
#206 = CARTESIAN_POINT ( 'NONE',  ( -25.00000000000000400, -25.00000000000000000, 2.000000000000000000 ) ) ;
#207 = PRODUCT_DEFINITION_FORMATION_WITH_SPECIFIED_SOURCE ( 'ANY', '', #60, .NOT_KNOWN. ) ;
#208 = PLANE ( 'NONE',  #115 ) ;
#209 = APPLICATION_CONTEXT ( 'configuration controlled 3d designs of mechanical parts and assemblies' ) ;
#210 = SHAPE_DEFINITION_REPRESENTATION ( #64, #215 ) ;
#211 = PERSON_AND_ORGANIZATION_ROLE ( 'creator' ) ;
#212 = DIRECTION ( 'NONE',  ( 0.0000000000000000000, 1.000000000000000000, 0.0000000000000000000 ) ) ;
#213 = CALENDAR_DATE ( 2019, 7, 1 ) ;
#214 = ORIENTED_EDGE ( 'NONE', *, *, #59, .T. ) ;
#215 = ADVANCED_BREP_SHAPE_REPRESENTATION ( 'Web Model 47231_49636', ( #113, #217 ), #79 ) ;
#216 = ORIENTED_EDGE ( 'NONE', *, *, #42, .T. ) ;
#217 = AXIS2_PLACEMENT_3D ( 'NONE', #74, #36, #33 ) ;
#218 = ORIENTED_EDGE ( 'NONE', *, *, #219, .T. ) ;
#219 = EDGE_CURVE ( 'NONE', #28, #195, #163, .T. ) ;
#220 = AXIS2_PLACEMENT_3D ( 'NONE', #10, #31, #154 ) ;
#221 = VERTEX_POINT ( 'NONE', #126 ) ;
#222 = CARTESIAN_POINT ( 'NONE',  ( -25.00000000000000400, -25.00000000000000000, 2.000000000000000000 ) ) ;
#223 = DIRECTION ( 'NONE',  ( -0.0000000000000000000, -0.0000000000000000000, -1.000000000000000000 ) ) ;
#224 = VERTEX_POINT ( 'NONE', #106 ) ;
#225 = DIRECTION ( 'NONE',  ( -0.0000000000000000000, -1.000000000000000000, -0.0000000000000000000 ) ) ;
#226 = APPLICATION_CONTEXT ( 'configuration controlled 3d designs of mechanical parts and assemblies' ) ;
#227 = CC_DESIGN_APPROVAL ( #130, ( #200 ) ) ;
#228 = ORIENTED_EDGE ( 'NONE', *, *, #42, .F. ) ;
#229 = DIRECTION ( 'NONE',  ( -1.000000000000000000, -0.0000000000000000000, -0.0000000000000000000 ) ) ;
#230 = APPROVAL_ROLE ( '' ) ;
#231 = CARTESIAN_POINT ( 'NONE',  ( 0.0000000000000000000, 0.0000000000000000000, -2.000000000000000000 ) ) ;
#232 = SECURITY_CLASSIFICATION_LEVEL ( 'unclassified' ) ;
#233 = EDGE_LOOP ( 'NONE', ( #83, #70, #45, #168 ) ) ;
#234 = PRODUCT_RELATED_PRODUCT_CATEGORY ( 'detail', '', ( #60 ) ) ;
#235 = COORDINATED_UNIVERSAL_TIME_OFFSET ( 5, 0, .BEHIND. ) ;
#236 = ORIENTED_EDGE ( 'NONE', *, *, #180, .T. ) ;
#237 = AXIS2_PLACEMENT_3D ( 'NONE', #12, #49, #187 ) ;
ENDSEC;
END-ISO-10303-21;
