ISO-10303-21;
HEADER;
FILE_DESCRIPTION (( 'STEP AP203' ),
    '1' );
FILE_NAME ('Web Model 83342.STEP',
    '2017-02-01T15:17:44',
    ( '' ),
    ( '' ),
    'SwSTEP 2.0',
    'SolidWorks 2016',
    '' );
FILE_SCHEMA (( 'CONFIG_CONTROL_DESIGN' ));
ENDSEC;

DATA;
#1 = VERTEX_POINT ( 'NONE', #158 ) ;
#2 = CC_DESIGN_DATE_AND_TIME_ASSIGNMENT ( #77, #49, ( #140 ) ) ;
#3 = APPROVAL_PERSON_ORGANIZATION ( #81, #67, #110 ) ;
#4 = CARTESIAN_POINT ( 'NONE',  ( 3.000000000000000000, 0.0000000000000000000, 0.0000000000000000000 ) ) ;
#5 = PERSON_AND_ORGANIZATION_ROLE ( 'creator' ) ;
#6 = COORDINATED_UNIVERSAL_TIME_OFFSET ( 5, 0, .BEHIND. ) ;
#7 = EDGE_CURVE ( 'NONE', #9, #138, #24, .T. ) ;
#8 = EDGE_LOOP ( 'NONE', ( #66, #74 ) ) ;
#9 = VERTEX_POINT ( 'NONE', #170 ) ;
#10 = CARTESIAN_POINT ( 'NONE',  ( 0.0000000000000000000, 0.0000000000000000000, 0.0000000000000000000 ) ) ;
#11 = APPLICATION_PROTOCOL_DEFINITION ( 'international standard', 'config_control_design', 1994, #59 ) ;
#12 = APPROVAL_ROLE ( '' ) ;
#13 = EDGE_CURVE ( 'NONE', #1, #29, #166, .T. ) ;
#14 = CYLINDRICAL_SURFACE ( 'NONE', #130, 6.250000000000000000 ) ;
#15 = PERSON_AND_ORGANIZATION_ROLE ( 'classification_officer' ) ;
#16 = CC_DESIGN_APPROVAL ( #38, ( #25 ) ) ;
#17 = CLOSED_SHELL ( 'NONE', ( #33, #146, #18, #93 ) ) ;
#18 = ADVANCED_FACE ( 'NONE', ( #103 ), #101, .T. ) ;
#19 = CARTESIAN_POINT ( 'NONE',  ( 3.000000000000000000, 0.0000000000000000000, 0.0000000000000000000 ) ) ;
#20 = CARTESIAN_POINT ( 'NONE',  ( 0.0000000000000000000, 0.0000000000000000000, 0.0000000000000000000 ) ) ;
#21 = UNCERTAINTY_MEASURE_WITH_UNIT (LENGTH_MEASURE( 1.000000000000000100E-005 ), #135, 'distance_accuracy_value', 'NONE');
#22 = CARTESIAN_POINT ( 'NONE',  ( 0.0000000000000000000, 0.0000000000000000000, 0.0000000000000000000 ) ) ;
#23 = APPROVAL_DATE_TIME ( #97, #118 ) ;
#24 = CIRCLE ( 'NONE', #153, 6.250000000000000000 ) ;
#25 = PRODUCT_DEFINITION ( 'UNKNOWN', '', #150, #116 ) ;
#26 = DATE_AND_TIME ( #137, #167 ) ;
#27 = APPLICATION_PROTOCOL_DEFINITION ( 'international standard', 'config_control_design', 1994, #174 ) ;
#28 = DIRECTION ( 'NONE',  ( 1.000000000000000000, 0.0000000000000000000, 0.0000000000000000000 ) ) ;
#29 = VERTEX_POINT ( 'NONE', #151 ) ;
#30 = DIRECTION ( 'NONE',  ( 1.000000000000000000, 0.0000000000000000000, 0.0000000000000000000 ) ) ;
#31 = CALENDAR_DATE ( 2017, 1, 2 ) ;
#32 = DATE_TIME_ROLE ( 'creation_date' ) ;
#33 = ADVANCED_FACE ( 'NONE', ( #57 ), #14, .T. ) ;
#34 = PERSON_AND_ORGANIZATION ( #100, #124 ) ;
#35 = CARTESIAN_POINT ( 'NONE',  ( 3.000000000000000000, 7.654042494670957600E-016, -6.250000000000000000 ) ) ;
#36 = ORIENTED_EDGE ( 'NONE', *, *, #144, .F. ) ;
#37 = DIRECTION ( 'NONE',  ( 1.000000000000000000, 0.0000000000000000000, 0.0000000000000000000 ) ) ;
#38 = APPROVAL ( #85, 'UNSPECIFIED' ) ;
#39 = CALENDAR_DATE ( 2017, 1, 2 ) ;
#40 = PERSON_AND_ORGANIZATION ( #100, #124 ) ;
#41 = VECTOR ( 'NONE', #91, 1000.000000000000000 ) ;
#42 = ORIENTED_EDGE ( 'NONE', *, *, #56, .F. ) ;
#43 = DIRECTION ( 'NONE',  ( 1.000000000000000000, 0.0000000000000000000, 0.0000000000000000000 ) ) ;
#44 = DIRECTION ( 'NONE',  ( 0.0000000000000000000, 0.0000000000000000000, -1.000000000000000000 ) ) ;
#45 = FACE_OUTER_BOUND ( 'NONE', #83, .T. ) ;
#46 = DIRECTION ( 'NONE',  ( 0.0000000000000000000, 0.0000000000000000000, -1.000000000000000000 ) ) ;
#47 = EDGE_CURVE ( 'NONE', #138, #9, #128, .T. ) ;
#48 = EDGE_LOOP ( 'NONE', ( #68, #117, #78, #145 ) ) ;
#49 = DATE_TIME_ROLE ( 'classification_date' ) ;
#50 = DIRECTION ( 'NONE',  ( 0.0000000000000000000, 0.0000000000000000000, -1.000000000000000000 ) ) ;
#51 = ORIENTED_EDGE ( 'NONE', *, *, #56, .T. ) ;
#52 = DIRECTION ( 'NONE',  ( -1.000000000000000000, -0.0000000000000000000, -0.0000000000000000000 ) ) ;
#53 = CC_DESIGN_PERSON_AND_ORGANIZATION_ASSIGNMENT ( #149, #99, ( #169 ) ) ;
#54 = AXIS2_PLACEMENT_3D ( 'NONE', #20, #37, #122 ) ;
#55 = FACE_OUTER_BOUND ( 'NONE', #8, .T. ) ;
#56 = EDGE_CURVE ( 'NONE', #29, #1, #92, .T. ) ;
#57 = FACE_OUTER_BOUND ( 'NONE', #48, .T. ) ;
#58 =( NAMED_UNIT ( * ) PLANE_ANGLE_UNIT ( ) SI_UNIT ( $, .RADIAN. ) );
#59 = APPLICATION_CONTEXT ( 'configuration controlled 3d designs of mechanical parts and assemblies' ) ;
#60 = APPROVAL_STATUS ( 'not_yet_approved' ) ;
#61 = CC_DESIGN_APPROVAL ( #118, ( #140 ) ) ;
#62 = AXIS2_PLACEMENT_3D ( 'NONE', #19, #65, #131 ) ;
#63 = COORDINATED_UNIVERSAL_TIME_OFFSET ( 5, 0, .BEHIND. ) ;
#64 = EDGE_CURVE ( 'NONE', #29, #9, #155, .T. ) ;
#65 = DIRECTION ( 'NONE',  ( -1.000000000000000000, -0.0000000000000000000, -0.0000000000000000000 ) ) ;
#66 = ORIENTED_EDGE ( 'NONE', *, *, #7, .F. ) ;
#67 = APPROVAL ( #120, 'UNSPECIFIED' ) ;
#68 = ORIENTED_EDGE ( 'NONE', *, *, #13, .F. ) ;
#69 = CC_DESIGN_PERSON_AND_ORGANIZATION_ASSIGNMENT ( #40, #82, ( #150 ) ) ;
#70 = CARTESIAN_POINT ( 'NONE',  ( 3.000000000000000000, 0.0000000000000000000, 0.0000000000000000000 ) ) ;
#71 = LOCAL_TIME ( 10, 17, 44.00000000000000000, #63 ) ;
#72 = PERSON_AND_ORGANIZATION ( #100, #124 ) ;
#73 = CARTESIAN_POINT ( 'NONE',  ( 3.000000000000000000, 0.0000000000000000000, 0.0000000000000000000 ) ) ;
#74 = ORIENTED_EDGE ( 'NONE', *, *, #47, .F. ) ;
#75 = LOCAL_TIME ( 10, 17, 44.00000000000000000, #147 ) ;
#76 = LOCAL_TIME ( 10, 17, 44.00000000000000000, #148 ) ;
#77 = DATE_AND_TIME ( #109, #113 ) ;
#78 = ORIENTED_EDGE ( 'NONE', *, *, #47, .T. ) ;
#79 = AXIS2_PLACEMENT_3D ( 'NONE', #22, #134, #159 ) ;
#80 =( GEOMETRIC_REPRESENTATION_CONTEXT ( 3 ) GLOBAL_UNCERTAINTY_ASSIGNED_CONTEXT ( ( #21 ) ) GLOBAL_UNIT_ASSIGNED_CONTEXT ( ( #135, #58, #84 ) ) REPRESENTATION_CONTEXT ( 'NONE', 'WORKASPACE' ) );
#81 = PERSON_AND_ORGANIZATION ( #100, #124 ) ;
#82 = PERSON_AND_ORGANIZATION_ROLE ( 'creator' ) ;
#83 = EDGE_LOOP ( 'NONE', ( #36, #42, #152, #121 ) ) ;
#84 =( NAMED_UNIT ( * ) SI_UNIT ( $, .STERADIAN. ) SOLID_ANGLE_UNIT ( ) );
#85 = APPROVAL_STATUS ( 'not_yet_approved' ) ;
#86 = CC_DESIGN_PERSON_AND_ORGANIZATION_ASSIGNMENT ( #141, #5, ( #25 ) ) ;
#87 = MANIFOLD_SOLID_BREP ( 'Extrude1', #17 ) ;
#88 = DIRECTION ( 'NONE',  ( 0.0000000000000000000, 0.0000000000000000000, 1.000000000000000000 ) ) ;
#89 = DATE_AND_TIME ( #39, #76 ) ;
#90 = APPROVAL_PERSON_ORGANIZATION ( #34, #118, #12 ) ;
#91 = DIRECTION ( 'NONE',  ( -1.000000000000000000, -0.0000000000000000000, -0.0000000000000000000 ) ) ;
#92 = CIRCLE ( 'NONE', #112, 6.250000000000000000 ) ;
#93 = ADVANCED_FACE ( 'NONE', ( #55 ), #132, .F. ) ;
#94 = CC_DESIGN_DATE_AND_TIME_ASSIGNMENT ( #26, #32, ( #25 ) ) ;
#95 = AXIS2_PLACEMENT_3D ( 'NONE', #119, #30, #50 ) ;
#96 = PERSON_AND_ORGANIZATION_ROLE ( 'design_supplier' ) ;
#97 = DATE_AND_TIME ( #139, #75 ) ;
#98 = CC_DESIGN_PERSON_AND_ORGANIZATION_ASSIGNMENT ( #143, #15, ( #140 ) ) ;
#99 = PERSON_AND_ORGANIZATION_ROLE ( 'design_owner' ) ;
#100 = PERSON ( 'UNSPECIFIED', 'UNSPECIFIED', 'UNSPECIFIED', ('UNSPECIFIED'), ('UNSPECIFIED'), ('UNSPECIFIED') ) ;
#101 = PLANE ( 'NONE',  #107 ) ;
#102 = APPROVAL_PERSON_ORGANIZATION ( #162, #38, #164 ) ;
#103 = FACE_OUTER_BOUND ( 'NONE', #168, .T. ) ;
#104 = DIRECTION ( 'NONE',  ( 1.000000000000000000, 0.0000000000000000000, 0.0000000000000000000 ) ) ;
#105 = DIRECTION ( 'NONE',  ( 0.0000000000000000000, 0.0000000000000000000, -1.000000000000000000 ) ) ;
#106 = COORDINATED_UNIVERSAL_TIME_OFFSET ( 5, 0, .BEHIND. ) ;
#107 = AXIS2_PLACEMENT_3D ( 'NONE', #73, #28, #46 ) ;
#108 = CC_DESIGN_SECURITY_CLASSIFICATION ( #140, ( #150 ) ) ;
#109 = CALENDAR_DATE ( 2017, 1, 2 ) ;
#110 = APPROVAL_ROLE ( '' ) ;
#111 = APPROVAL_DATE_TIME ( #171, #38 ) ;
#112 = AXIS2_PLACEMENT_3D ( 'NONE', #4, #104, #105 ) ;
#113 = LOCAL_TIME ( 10, 17, 44.00000000000000000, #6 ) ;
#114 = CARTESIAN_POINT ( 'NONE',  ( 3.000000000000000000, 0.0000000000000000000, 0.0000000000000000000 ) ) ;
#115 = CYLINDRICAL_SURFACE ( 'NONE', #62, 6.250000000000000000 ) ;
#116 = DESIGN_CONTEXT ( 'detailed design', #59, 'design' ) ;
#117 = ORIENTED_EDGE ( 'NONE', *, *, #144, .T. ) ;
#118 = APPROVAL ( #60, 'UNSPECIFIED' ) ;
#119 = CARTESIAN_POINT ( 'NONE',  ( 0.0000000000000000000, 0.0000000000000000000, 0.0000000000000000000 ) ) ;
#120 = APPROVAL_STATUS ( 'not_yet_approved' ) ;
#121 = ORIENTED_EDGE ( 'NONE', *, *, #7, .T. ) ;
#122 = DIRECTION ( 'NONE',  ( 0.0000000000000000000, 0.0000000000000000000, -1.000000000000000000 ) ) ;
#123 = CARTESIAN_POINT ( 'NONE',  ( 0.0000000000000000000, 7.654042494670957600E-016, -6.250000000000000000 ) ) ;
#124 = ORGANIZATION ( 'UNSPECIFIED', 'UNSPECIFIED', '' ) ;
#125 = PRODUCT_RELATED_PRODUCT_CATEGORY ( 'detail', '', ( #169 ) ) ;
#126 = LINE ( 'NONE', #35, #129 ) ;
#127 = MECHANICAL_CONTEXT ( 'NONE', #174, 'mechanical' ) ;
#128 = CIRCLE ( 'NONE', #95, 6.250000000000000000 ) ;
#129 = VECTOR ( 'NONE', #52, 1000.000000000000000 ) ;
#130 = AXIS2_PLACEMENT_3D ( 'NONE', #70, #173, #88 ) ;
#131 = DIRECTION ( 'NONE',  ( 0.0000000000000000000, 0.0000000000000000000, 1.000000000000000000 ) ) ;
#132 = PLANE ( 'NONE',  #54 ) ;
#133 = ADVANCED_BREP_SHAPE_REPRESENTATION ( 'Web Model 83342', ( #87, #79 ), #80 ) ;
#134 = DIRECTION ( 'NONE',  ( 0.0000000000000000000, 0.0000000000000000000, 1.000000000000000000 ) ) ;
#135 =( LENGTH_UNIT ( ) NAMED_UNIT ( * ) SI_UNIT ( .MILLI., .METRE. ) );
#136 = DIRECTION ( 'NONE',  ( 0.0000000000000000000, 0.0000000000000000000, -1.000000000000000000 ) ) ;
#137 = CALENDAR_DATE ( 2017, 1, 2 ) ;
#138 = VERTEX_POINT ( 'NONE', #123 ) ;
#139 = CALENDAR_DATE ( 2017, 1, 2 ) ;
#140 = SECURITY_CLASSIFICATION ( '', '', #142 ) ;
#141 = PERSON_AND_ORGANIZATION ( #100, #124 ) ;
#142 = SECURITY_CLASSIFICATION_LEVEL ( 'unclassified' ) ;
#143 = PERSON_AND_ORGANIZATION ( #100, #124 ) ;
#144 = EDGE_CURVE ( 'NONE', #1, #138, #126, .T. ) ;
#145 = ORIENTED_EDGE ( 'NONE', *, *, #64, .F. ) ;
#146 = ADVANCED_FACE ( 'NONE', ( #45 ), #115, .T. ) ;
#147 = COORDINATED_UNIVERSAL_TIME_OFFSET ( 5, 0, .BEHIND. ) ;
#148 = COORDINATED_UNIVERSAL_TIME_OFFSET ( 5, 0, .BEHIND. ) ;
#149 = PERSON_AND_ORGANIZATION ( #100, #124 ) ;
#150 = PRODUCT_DEFINITION_FORMATION_WITH_SPECIFIED_SOURCE ( 'ANY', '', #169, .NOT_KNOWN. ) ;
#151 = CARTESIAN_POINT ( 'NONE',  ( 3.000000000000000000, 0.0000000000000000000, 6.250000000000000000 ) ) ;
#152 = ORIENTED_EDGE ( 'NONE', *, *, #64, .T. ) ;
#153 = AXIS2_PLACEMENT_3D ( 'NONE', #10, #43, #136 ) ;
#154 = PRODUCT_DEFINITION_SHAPE ( 'NONE', 'NONE',  #25 ) ;
#155 = LINE ( 'NONE', #163, #41 ) ;
#156 = ORIENTED_EDGE ( 'NONE', *, *, #13, .T. ) ;
#157 = AXIS2_PLACEMENT_3D ( 'NONE', #114, #172, #44 ) ;
#158 = CARTESIAN_POINT ( 'NONE',  ( 3.000000000000000000, 7.654042494670957600E-016, -6.250000000000000000 ) ) ;
#159 = DIRECTION ( 'NONE',  ( 1.000000000000000000, 0.0000000000000000000, 0.0000000000000000000 ) ) ;
#160 = SHAPE_DEFINITION_REPRESENTATION ( #154, #133 ) ;
#161 = CC_DESIGN_PERSON_AND_ORGANIZATION_ASSIGNMENT ( #72, #96, ( #150 ) ) ;
#162 = PERSON_AND_ORGANIZATION ( #100, #124 ) ;
#163 = CARTESIAN_POINT ( 'NONE',  ( 3.000000000000000000, 0.0000000000000000000, 6.250000000000000000 ) ) ;
#164 = APPROVAL_ROLE ( '' ) ;
#165 = CC_DESIGN_APPROVAL ( #67, ( #150 ) ) ;
#166 = CIRCLE ( 'NONE', #157, 6.250000000000000000 ) ;
#167 = LOCAL_TIME ( 10, 17, 44.00000000000000000, #106 ) ;
#168 = EDGE_LOOP ( 'NONE', ( #51, #156 ) ) ;
#169 = PRODUCT ( 'Web Model 83342', 'Web Model 83342', '', ( #127 ) ) ;
#170 = CARTESIAN_POINT ( 'NONE',  ( 0.0000000000000000000, 0.0000000000000000000, 6.250000000000000000 ) ) ;
#171 = DATE_AND_TIME ( #31, #71 ) ;
#172 = DIRECTION ( 'NONE',  ( 1.000000000000000000, 0.0000000000000000000, 0.0000000000000000000 ) ) ;
#173 = DIRECTION ( 'NONE',  ( -1.000000000000000000, -0.0000000000000000000, -0.0000000000000000000 ) ) ;
#174 = APPLICATION_CONTEXT ( 'configuration controlled 3d designs of mechanical parts and assemblies' ) ;
#175 = APPROVAL_DATE_TIME ( #89, #67 ) ;
ENDSEC;
END-ISO-10303-21;
