ISO-10303-21;
HEADER;
FILE_DESCRIPTION (( 'STEP AP203' ),
    '1' );
FILE_NAME ('36935_36960.step',
    '2017-08-23T20:36:24',
    ( '' ),
    ( '' ),
    'SwSTEP 2.0',
    'SolidWorks 2016',
    '' );
FILE_SCHEMA (( 'CONFIG_CONTROL_DESIGN' ));
ENDSEC;

DATA;
#1 = EDGE_LOOP ( 'NONE', ( #15, #110, #91, #144 ) ) ;
#2 = CC_DESIGN_APPROVAL ( #63, ( #116 ) ) ;
#3 = CC_DESIGN_APPROVAL ( #47, ( #157 ) ) ;
#4 = APPROVAL_PERSON_ORGANIZATION ( #105, #63, #13 ) ;
#5 =( NAMED_UNIT ( * ) SI_UNIT ( $, .STERADIAN. ) SOLID_ANGLE_UNIT ( ) );
#6 = CARTESIAN_POINT ( 'NONE',  ( 37.49999999999999300, 4.592425496802573600E-015, -1.500000000000000000 ) ) ;
#7 = PRODUCT_RELATED_PRODUCT_CATEGORY ( 'detail', '', ( #25 ) ) ;
#8 = CARTESIAN_POINT ( 'NONE',  ( 0.0000000000000000000, 0.0000000000000000000, 1.500000000000000000 ) ) ;
#9 = CYLINDRICAL_SURFACE ( 'NONE', #98, 37.49999999999999300 ) ;
#10 = CARTESIAN_POINT ( 'NONE',  ( 0.0000000000000000000, 0.0000000000000000000, -1.500000000000000000 ) ) ;
#11 = APPLICATION_CONTEXT ( 'configuration controlled 3d designs of mechanical parts and assemblies' ) ;
#12 = COORDINATED_UNIVERSAL_TIME_OFFSET ( 5, 0, .BEHIND. ) ;
#13 = APPROVAL_ROLE ( '' ) ;
#14 = DATE_AND_TIME ( #50, #101 ) ;
#15 = ORIENTED_EDGE ( 'NONE', *, *, #42, .F. ) ;
#16 = UNCERTAINTY_MEASURE_WITH_UNIT (LENGTH_MEASURE( 1.000000000000000100E-005 ), #151, 'distance_accuracy_value', 'NONE');
#17 = DIRECTION ( 'NONE',  ( -1.000000000000000000, 0.0000000000000000000, 0.0000000000000000000 ) ) ;
#18 = EDGE_LOOP ( 'NONE', ( #58, #24 ) ) ;
#19 = PERSON_AND_ORGANIZATION ( #163, #37 ) ;
#20 = CARTESIAN_POINT ( 'NONE',  ( 37.49999999999999300, 4.592425496802573600E-015, 1.500000000000000000 ) ) ;
#21 = ADVANCED_FACE ( 'NONE', ( #109 ), #160, .T. ) ;
#22 = PLANE ( 'NONE',  #148 ) ;
#23 = DATE_AND_TIME ( #69, #136 ) ;
#24 = ORIENTED_EDGE ( 'NONE', *, *, #111, .F. ) ;
#25 = PRODUCT ( '36935_36960', '36935_36960', '', ( #131 ) ) ;
#26 = APPROVAL_DATE_TIME ( #59, #63 ) ;
#27 = CIRCLE ( 'NONE', #97, 37.49999999999999300 ) ;
#28 = DIRECTION ( 'NONE',  ( 0.0000000000000000000, 0.0000000000000000000, 1.000000000000000000 ) ) ;
#29 = CARTESIAN_POINT ( 'NONE',  ( 0.0000000000000000000, 0.0000000000000000000, 1.500000000000000000 ) ) ;
#30 = APPROVAL_DATE_TIME ( #100, #51 ) ;
#31 = CARTESIAN_POINT ( 'NONE',  ( 0.0000000000000000000, 0.0000000000000000000, 1.500000000000000000 ) ) ;
#32 = EDGE_CURVE ( 'NONE', #85, #62, #123, .T. ) ;
#33 = EDGE_CURVE ( 'NONE', #139, #85, #43, .T. ) ;
#34 = FACE_OUTER_BOUND ( 'NONE', #45, .T. ) ;
#35 = CIRCLE ( 'NONE', #72, 37.49999999999999300 ) ;
#36 = PLANE ( 'NONE',  #169 ) ;
#37 = ORGANIZATION ( 'UNSPECIFIED', 'UNSPECIFIED', '' ) ;
#38 = DIRECTION ( 'NONE',  ( 0.0000000000000000000, 0.0000000000000000000, 1.000000000000000000 ) ) ;
#39 = DIRECTION ( 'NONE',  ( 1.000000000000000000, 0.0000000000000000000, 0.0000000000000000000 ) ) ;
#40 = DIRECTION ( 'NONE',  ( 0.0000000000000000000, 0.0000000000000000000, 1.000000000000000000 ) ) ;
#41 = DIRECTION ( 'NONE',  ( 1.000000000000000000, 0.0000000000000000000, -0.0000000000000000000 ) ) ;
#42 = EDGE_CURVE ( 'NONE', #154, #62, #167, .T. ) ;
#43 = LINE ( 'NONE', #155, #145 ) ;
#44 = PERSON_AND_ORGANIZATION_ROLE ( 'classification_officer' ) ;
#45 = EDGE_LOOP ( 'NONE', ( #106, #164 ) ) ;
#46 = ADVANCED_BREP_SHAPE_REPRESENTATION ( '36935_36960', ( #159, #137 ), #102 ) ;
#47 = APPROVAL ( #93, 'UNSPECIFIED' ) ;
#48 = CC_DESIGN_PERSON_AND_ORGANIZATION_ASSIGNMENT ( #127, #90, ( #108 ) ) ;
#49 = EDGE_LOOP ( 'NONE', ( #79, #115, #124, #77 ) ) ;
#50 = CALENDAR_DATE ( 2017, 23, 8 ) ;
#51 = APPROVAL ( #74, 'UNSPECIFIED' ) ;
#52 = APPLICATION_PROTOCOL_DEFINITION ( 'international standard', 'config_control_design', 1994, #128 ) ;
#53 = APPROVAL_DATE_TIME ( #14, #47 ) ;
#54 = DIRECTION ( 'NONE',  ( 1.000000000000000000, 0.0000000000000000000, 0.0000000000000000000 ) ) ;
#55 = CARTESIAN_POINT ( 'NONE',  ( 37.49999999999999300, 4.592425496802573600E-015, 1.500000000000000000 ) ) ;
#56 = CARTESIAN_POINT ( 'NONE',  ( -37.49999999999999300, 0.0000000000000000000, 1.500000000000000000 ) ) ;
#57 = COORDINATED_UNIVERSAL_TIME_OFFSET ( 5, 0, .BEHIND. ) ;
#58 = ORIENTED_EDGE ( 'NONE', *, *, #32, .F. ) ;
#59 = DATE_AND_TIME ( #88, #126 ) ;
#60 = AXIS2_PLACEMENT_3D ( 'NONE', #10, #130, #39 ) ;
#61 = CALENDAR_DATE ( 2017, 23, 8 ) ;
#62 = VERTEX_POINT ( 'NONE', #6 ) ;
#63 = APPROVAL ( #76, 'UNSPECIFIED' ) ;
#64 = CALENDAR_DATE ( 2017, 23, 8 ) ;
#65 = EDGE_CURVE ( 'NONE', #154, #139, #83, .T. ) ;
#66 = DIRECTION ( 'NONE',  ( 1.000000000000000000, 0.0000000000000000000, 0.0000000000000000000 ) ) ;
#67 = DIRECTION ( 'NONE',  ( -1.000000000000000000, 0.0000000000000000000, 0.0000000000000000000 ) ) ;
#68 = CARTESIAN_POINT ( 'NONE',  ( -37.49999999999999300, 0.0000000000000000000, -1.500000000000000000 ) ) ;
#69 = CALENDAR_DATE ( 2017, 23, 8 ) ;
#70 = DIRECTION ( 'NONE',  ( 1.000000000000000000, 0.0000000000000000000, 0.0000000000000000000 ) ) ;
#71 = SECURITY_CLASSIFICATION_LEVEL ( 'unclassified' ) ;
#72 = AXIS2_PLACEMENT_3D ( 'NONE', #31, #40, #66 ) ;
#73 = APPROVAL_PERSON_ORGANIZATION ( #96, #47, #134 ) ;
#74 = APPROVAL_STATUS ( 'not_yet_approved' ) ;
#75 = EDGE_CURVE ( 'NONE', #139, #154, #35, .T. ) ;
#76 = APPROVAL_STATUS ( 'not_yet_approved' ) ;
#77 = ORIENTED_EDGE ( 'NONE', *, *, #33, .F. ) ;
#78 = CC_DESIGN_PERSON_AND_ORGANIZATION_ASSIGNMENT ( #99, #156, ( #108 ) ) ;
#79 = ORIENTED_EDGE ( 'NONE', *, *, #65, .F. ) ;
#80 = FACE_OUTER_BOUND ( 'NONE', #18, .T. ) ;
#81 = PERSON_AND_ORGANIZATION_ROLE ( 'design_owner' ) ;
#82 = AXIS2_PLACEMENT_3D ( 'NONE', #29, #152, #70 ) ;
#83 = CIRCLE ( 'NONE', #82, 37.49999999999999300 ) ;
#84 = DIRECTION ( 'NONE',  ( -0.0000000000000000000, -0.0000000000000000000, -1.000000000000000000 ) ) ;
#85 = VERTEX_POINT ( 'NONE', #68 ) ;
#86 = DIRECTION ( 'NONE',  ( 0.0000000000000000000, 0.0000000000000000000, 1.000000000000000000 ) ) ;
#87 = CC_DESIGN_SECURITY_CLASSIFICATION ( #116, ( #108 ) ) ;
#88 = CALENDAR_DATE ( 2017, 23, 8 ) ;
#89 = ADVANCED_FACE ( 'NONE', ( #80 ), #36, .F. ) ;
#90 = PERSON_AND_ORGANIZATION_ROLE ( 'design_supplier' ) ;
#91 = ORIENTED_EDGE ( 'NONE', *, *, #33, .T. ) ;
#92 = COORDINATED_UNIVERSAL_TIME_OFFSET ( 5, 0, .BEHIND. ) ;
#93 = APPROVAL_STATUS ( 'not_yet_approved' ) ;
#94 = PERSON_AND_ORGANIZATION ( #163, #37 ) ;
#95 = PERSON_AND_ORGANIZATION ( #163, #37 ) ;
#96 = PERSON_AND_ORGANIZATION ( #163, #37 ) ;
#97 = AXIS2_PLACEMENT_3D ( 'NONE', #118, #86, #143 ) ;
#98 = AXIS2_PLACEMENT_3D ( 'NONE', #8, #104, #17 ) ;
#99 = PERSON_AND_ORGANIZATION ( #163, #37 ) ;
#100 = DATE_AND_TIME ( #64, #175 ) ;
#101 = LOCAL_TIME ( 16, 36, 24.00000000000000000, #135 ) ;
#102 =( GEOMETRIC_REPRESENTATION_CONTEXT ( 3 ) GLOBAL_UNCERTAINTY_ASSIGNED_CONTEXT ( ( #16 ) ) GLOBAL_UNIT_ASSIGNED_CONTEXT ( ( #151, #140, #5 ) ) REPRESENTATION_CONTEXT ( 'NONE', 'WORKASPACE' ) );
#103 = DIRECTION ( 'NONE',  ( 1.000000000000000000, 0.0000000000000000000, -0.0000000000000000000 ) ) ;
#104 = DIRECTION ( 'NONE',  ( -0.0000000000000000000, -0.0000000000000000000, -1.000000000000000000 ) ) ;
#105 = PERSON_AND_ORGANIZATION ( #163, #37 ) ;
#106 = ORIENTED_EDGE ( 'NONE', *, *, #75, .T. ) ;
#107 = DATE_TIME_ROLE ( 'creation_date' ) ;
#108 = PRODUCT_DEFINITION_FORMATION_WITH_SPECIFIED_SOURCE ( 'ANY', '', #25, .NOT_KNOWN. ) ;
#109 = FACE_OUTER_BOUND ( 'NONE', #1, .T. ) ;
#110 = ORIENTED_EDGE ( 'NONE', *, *, #75, .F. ) ;
#111 = EDGE_CURVE ( 'NONE', #62, #85, #27, .T. ) ;
#112 = DATE_AND_TIME ( #61, #147 ) ;
#113 = PERSON_AND_ORGANIZATION ( #163, #37 ) ;
#114 = CARTESIAN_POINT ( 'NONE',  ( 0.0000000000000000000, 0.0000000000000000000, 1.500000000000000000 ) ) ;
#115 = ORIENTED_EDGE ( 'NONE', *, *, #42, .T. ) ;
#116 = SECURITY_CLASSIFICATION ( '', '', #71 ) ;
#117 = PRODUCT_DEFINITION_SHAPE ( 'NONE', 'NONE',  #157 ) ;
#118 = CARTESIAN_POINT ( 'NONE',  ( 0.0000000000000000000, 0.0000000000000000000, -1.500000000000000000 ) ) ;
#119 = CLOSED_SHELL ( 'NONE', ( #173, #21, #171, #89 ) ) ;
#120 = DATE_TIME_ROLE ( 'classification_date' ) ;
#121 = APPROVAL_ROLE ( '' ) ;
#122 = CC_DESIGN_APPROVAL ( #51, ( #108 ) ) ;
#123 = CIRCLE ( 'NONE', #60, 37.49999999999999300 ) ;
#124 = ORIENTED_EDGE ( 'NONE', *, *, #111, .T. ) ;
#125 = CC_DESIGN_DATE_AND_TIME_ASSIGNMENT ( #112, #107, ( #157 ) ) ;
#126 = LOCAL_TIME ( 16, 36, 24.00000000000000000, #57 ) ;
#127 = PERSON_AND_ORGANIZATION ( #163, #37 ) ;
#128 = APPLICATION_CONTEXT ( 'configuration controlled 3d designs of mechanical parts and assemblies' ) ;
#129 = CC_DESIGN_PERSON_AND_ORGANIZATION_ASSIGNMENT ( #94, #44, ( #116 ) ) ;
#130 = DIRECTION ( 'NONE',  ( 0.0000000000000000000, 0.0000000000000000000, 1.000000000000000000 ) ) ;
#131 = MECHANICAL_CONTEXT ( 'NONE', #128, 'mechanical' ) ;
#132 = PERSON_AND_ORGANIZATION_ROLE ( 'creator' ) ;
#133 = APPLICATION_PROTOCOL_DEFINITION ( 'international standard', 'config_control_design', 1994, #11 ) ;
#134 = APPROVAL_ROLE ( '' ) ;
#135 = COORDINATED_UNIVERSAL_TIME_OFFSET ( 5, 0, .BEHIND. ) ;
#136 = LOCAL_TIME ( 16, 36, 24.00000000000000000, #12 ) ;
#137 = AXIS2_PLACEMENT_3D ( 'NONE', #141, #166, #54 ) ;
#138 = CC_DESIGN_PERSON_AND_ORGANIZATION_ASSIGNMENT ( #19, #132, ( #157 ) ) ;
#139 = VERTEX_POINT ( 'NONE', #56 ) ;
#140 =( NAMED_UNIT ( * ) PLANE_ANGLE_UNIT ( ) SI_UNIT ( $, .RADIAN. ) );
#141 = CARTESIAN_POINT ( 'NONE',  ( 0.0000000000000000000, 0.0000000000000000000, 0.0000000000000000000 ) ) ;
#142 = APPROVAL_PERSON_ORGANIZATION ( #95, #51, #121 ) ;
#143 = DIRECTION ( 'NONE',  ( 1.000000000000000000, 0.0000000000000000000, 0.0000000000000000000 ) ) ;
#144 = ORIENTED_EDGE ( 'NONE', *, *, #32, .T. ) ;
#145 = VECTOR ( 'NONE', #84, 1000.000000000000000 ) ;
#146 = AXIS2_PLACEMENT_3D ( 'NONE', #170, #168, #67 ) ;
#147 = LOCAL_TIME ( 16, 36, 24.00000000000000000, #161 ) ;
#148 = AXIS2_PLACEMENT_3D ( 'NONE', #114, #28, #41 ) ;
#149 = CARTESIAN_POINT ( 'NONE',  ( 0.0000000000000000000, 0.0000000000000000000, -1.500000000000000000 ) ) ;
#150 = FACE_OUTER_BOUND ( 'NONE', #49, .T. ) ;
#151 =( LENGTH_UNIT ( ) NAMED_UNIT ( * ) SI_UNIT ( .MILLI., .METRE. ) );
#152 = DIRECTION ( 'NONE',  ( 0.0000000000000000000, 0.0000000000000000000, 1.000000000000000000 ) ) ;
#153 = VECTOR ( 'NONE', #172, 1000.000000000000000 ) ;
#154 = VERTEX_POINT ( 'NONE', #20 ) ;
#155 = CARTESIAN_POINT ( 'NONE',  ( -37.49999999999999300, 0.0000000000000000000, 1.500000000000000000 ) ) ;
#156 = PERSON_AND_ORGANIZATION_ROLE ( 'creator' ) ;
#157 = PRODUCT_DEFINITION ( 'UNKNOWN', '', #108, #158 ) ;
#158 = DESIGN_CONTEXT ( 'detailed design', #11, 'design' ) ;
#159 = MANIFOLD_SOLID_BREP ( 'Boss-Extrude1', #119 ) ;
#160 = CYLINDRICAL_SURFACE ( 'NONE', #146, 37.49999999999999300 ) ;
#161 = COORDINATED_UNIVERSAL_TIME_OFFSET ( 5, 0, .BEHIND. ) ;
#162 = CC_DESIGN_PERSON_AND_ORGANIZATION_ASSIGNMENT ( #113, #81, ( #25 ) ) ;
#163 = PERSON ( 'UNSPECIFIED', 'UNSPECIFIED', 'UNSPECIFIED', ('UNSPECIFIED'), ('UNSPECIFIED'), ('UNSPECIFIED') ) ;
#164 = ORIENTED_EDGE ( 'NONE', *, *, #65, .T. ) ;
#165 = CC_DESIGN_DATE_AND_TIME_ASSIGNMENT ( #23, #120, ( #116 ) ) ;
#166 = DIRECTION ( 'NONE',  ( 0.0000000000000000000, 0.0000000000000000000, 1.000000000000000000 ) ) ;
#167 = LINE ( 'NONE', #55, #153 ) ;
#168 = DIRECTION ( 'NONE',  ( -0.0000000000000000000, -0.0000000000000000000, -1.000000000000000000 ) ) ;
#169 = AXIS2_PLACEMENT_3D ( 'NONE', #149, #38, #103 ) ;
#170 = CARTESIAN_POINT ( 'NONE',  ( 0.0000000000000000000, 0.0000000000000000000, 1.500000000000000000 ) ) ;
#171 = ADVANCED_FACE ( 'NONE', ( #34 ), #22, .T. ) ;
#172 = DIRECTION ( 'NONE',  ( -0.0000000000000000000, -0.0000000000000000000, -1.000000000000000000 ) ) ;
#173 = ADVANCED_FACE ( 'NONE', ( #150 ), #9, .T. ) ;
#174 = SHAPE_DEFINITION_REPRESENTATION ( #117, #46 ) ;
#175 = LOCAL_TIME ( 16, 36, 24.00000000000000000, #92 ) ;
ENDSEC;
END-ISO-10303-21;
